Oops, an error
Loading. Please wait.

All About That Bass bass

version 1
version 1

Whole song

  • This version is more complete, includes the Outro,... Show more
  • There are many variations, and I've written all of them out with timing.

Interactive

188,014 views 123 this week
12 commentsread comments
1 2 3 4 5
x 135
add to favorites
×
Save as Personal and add changes to this tab that will be seen only by you. Learn more ›
×
You can save this tab as Personal to edit and correct it or add notes. All changes will be seen only by you. Learn more »
launch autoscroll
font size
0
reset
guitar tuner
edit
Autoscroll
slow
fast
+/-
esc
set tempo
stop
Author
Difficulty
Artist: Meghan Trainor
Song: All About That Bass
Tabber: John Shannon (a.k.a. robotfrom94)

Hey guys, this is a super easy bass riff that sounds pretty darn boss. 
It's pretty much two variations on this riff


[Intro/chorus]

G|---------------------------------------------------------------------------|
D|------2---------------4-----------------------------2----------------------|
A|-0-3h4-4-0-------2-4h5-5-2-----------2---------0-3h4-4-0-------------------|
E|--------------------------------0-3h4-4-0----------------------------------|


[Main verse riff]
(also in the 'my momma told me...' bit)

G|---------------------------------------------------------------------------|
D|------2-------2-------4-------4---------------------2-------2--------------|
A|-0-3h4-4-0-3h4---2-4h5-5-2-4h5-------2-------2-0-3h4-4-0-3h4---------------|
E|--------------------------------0-3h4-4-0-3h4------------------------------|

And that is it! super easy, super fun
any corrections, don't hesitate to let me know



************************************

| h  Hammer-on

************************************
Suggest correction
Creating personal tab
Creating personal tab
You can edit any tab online and save it as your Personal.

You can edit, replace or remove any tab part or add personal notes – all changes will be seen only by you.

Personal tabs can be accessed anytime from any device, even offline.
Learn more »
comments
print report bad tab
12 comments total. Showing first comments.
+2 reply
lucbuzz 415 Oct 18, 2014 08:35 PM

Great Tab!!!!! I made everyone laugh Thanks!

0 reply
sophiesbs3 82 Oct 23, 2014 04:25 AM

this song is so nice to play!, it is simple, but everyone knows what song it is! Thanks!!!!

0 reply
Julia Heaven 672 Oct 31, 2014 08:12 AM

I would like to give you 5 points but I am not allowed because I submited another version of it :s
Great job!!!! :)

guest
You may want to rate the tab now too:
select rating
Wanna post a correction for this tab? Suggest correction