Oops, an error
Loading. Please wait.

All About That Bass bass

version 2
version 2

Whole song

  • This version is more complete, includes the Outro,... Show more
  • There are many variations, and I've written all of them out with timing.

Interactive

46,769 views 6 this week
4 commentsread comments
1 2 3 4 5
x 14
add to favorites
×
Save as Personal and add changes to this tab that will be seen only by you. Learn more ›
×
You can save this tab as Personal to edit and correct it or add notes. All changes will be seen only by you. Learn more »
launch autoscroll
font size
0
reset
guitar tuner
edit
Autoscroll
slow
fast
+/-
esc
set tempo
stop
Author
All About That Bass - Meghan Trainor

 "Because you know I'm all about that bass bout that bass no treble”
G|--------------------------------------|
D|----------------------2---------------|
A|----0---------2--4--------4--0--------|
E|--------------------------------------|

 “I'm all 'bout that bass, 'bout that bass, no treble”
G|---------------------------------------|
D|----------------------4----------------|
A|----2---------4--5--------5--2---------|
E|---------------------------------------|

 “I'm all 'bout that bass, 'bout that bass, no treble”
G|---------------------------------------|
D|---------------------------------------|
A|----------------------2----------------|
E|-----0--------2--4--------4--0---------|

 “I'm all 'bout that bass, 'bout that bass”
G|--------------------------------------|
D|----------------------2---------------|
A|----0---------2--4--------4--0--------|
E|--------------------------------------|


 “Yeah it's pretty clear, I ain't no size two”
G|----------------------------------------------------|
D|---------------------2---------------------2--------|
A|----0--------2--4---------4--0-----2--4--------4----|
E|----------------------------------------------------|

 “But I can shake it, shake it like I'm supposed to do”
G|----------------------------------------------------|
D|---------------------4---------------------4--------|
A|----2--------4--5---------5--2----4--5---------5----|
E|----------------------------------------------------|

 “'Cause I got that boom boom that all the boys chase”
G|-------------------------------------------------------|
D|-------------------------------------------------------|
A|---------------------2--------------------2------------|
E|----0--------2--4---------4--0----2—4---------4------|

 “All the right junk in all the right places”
G|----------------------------------------------------|
D|---------------------2---------------------2--------|
A|----0---------2--4--------4--0-----2--4-------------|
E|----------------------------------------------------|

 “I see the magazines working that Photoshop”
G|----------------------------------------------------|
D|--------------------2---------------------2---------|
A|----0--------2--4---------4--0----2--4--------4-----|
E|----------------------------------------------------|

 “We know that shit ain't real Come on now, make it stop”
G|----------------------------------------------------|
D|--------------------4---------------------4---------|
A|----2-------4--5---------5--2----4--5---------------|
E|----------------------------------------------------|

 “If you got beauty beauty just raise 'em up”
G|-------------------------------------------------------|
D|-------------------------------------------------------|
A|--------------------2--------------------2-------------|
E|-----0------2--4---------4--0-----2—4---------4------|

'Cause every inch of you is perfect From the bottom to the top

 “Yeah, my momma she told me don't worry about your
G|---------------------------------------------------|
D|---------------------2------------------2----------|
A|----0---------2--4-------4--0-----2--4-------4-----|
E|---------------------------------------------------|

 size                                                 She says
G|---------------------------------------------------|
D|---------------------4-------------------4---------|
A|----2---------4--5-------5--2-----4--5--------5----|
E|---------------------------------------------------|

 “boys they like a little more booty to hold at”
G|---------------------------------------------------|
D|---------------------------------------------------|
A|---------------------2--------------------2--------|
E|-----0-------2--4-------4--0-------2--4------4-----|

 Night                                                 You know I
G|---------------------------------------------------|
D|--------------------2---------------------2--------|
A|----0--------2--4------4--0--------2--4-------4----|
E|---------------------------------------------------|

 won't be no stick-figure, silicone Barbie,”
G|-----------------------------------------------------|
D|---------------------2----------------------2--------|
A|----0---------2--4------4--0--------2--4--------4----|
E|-----------------------------------------------------|

 doll
G|-----------------------------------------------------|
D|--------------------4---------------------4----------|
A|----2-------4--5--------5--2-------4--5---------5----|
E|-----------------------------------------------------|

 “So, if that's what's you're into Then go ahead and move”
G|-------------------------------------------------------|
D|-------------------------------------------------------|
A|---------------------2---------------------2-----------|
E|-----0-------2--4--------4--0--------2--4------4-------|

 “along
G|-----------------------------------------------------|
D|------------------2----------------------------------|
A|----0------2--4------4--0----------------------------|
E|-----------------------------------------------------|

 “Because you know I'm all about that bass bout that bass no treble”
G|----------------------------------|
D|-------------------2--------------|
A|----0-------2--4------4--0--------|
E|----------------------------------|

 “I'm all 'bout that bass, 'bout that bass, no treble”
G|----------------------------------|
D|--------------------4-------------|
A|----2-------4--5--------5--2------|
E|----------------------------------|

 “I'm all 'bout that bass, 'bout that bass, no treble”
G|------------------------------------|
D|------------------------------------|
A|--------------------2---------------|
E|-----0------2--4--------4--0--------|

 “I'm all 'bout that bass, 'bout that bass”
G|------------------------------------|
D|-------------------2----------------|
A|----0------2--4---------4--0--------|
E|------------------------------------|


 I'm bringing booty back
G|----------------------------------|
D|----------------------------------|
A|----------------0-----------------|
E|----------------------------------|


 Go ahead and tell them skinny bitches
G|------------------------------------------------------|
D|-------------------------2----------------------------|
A|----0------------2--4----------0----------------------|
E|------------------------------------------------------|

 Hey                                                      No, I'm just playing I know
G|------------------------------------------------------|
D|----------------------4---------------------4---------|
A|----2---------4--5--------5--2------4--5---------5----|
E|------------------------------------------------------|

 you think you're fat,                           But I'm here to tell you that,
G|----------------------------------------------------------|
D|----------------------------------------------------------|
A|-----------------------2-------------------2-------0------|
E|-----0--------2--4---------4--0------2—4------4---------|


Every inch of you is perfect from the bottom to the top

 “Yeah, my momma she told me don't worry about your
G|---------------------------------------------------|
D|---------------------2------------------2----------|
A|----0---------2--4-------4--0-----2--4-------4-----|
E|---------------------------------------------------|

 size                                                 She says
G|---------------------------------------------------|
D|---------------------4-------------------4---------|
A|----2---------4--5-------5--2-----4--5--------5----|
E|---------------------------------------------------|

 “boys they like a little more booty to hold at”
G|---------------------------------------------------|
D|---------------------------------------------------|
A|---------------------2--------------------2--------|
E|-----0-------2--4-------4--0-------2--4------4-----|

 Night                                                 You know I
G|---------------------------------------------------|
D|--------------------2---------------------2--------|
A|----0--------2--4------4--0--------2--4-------4----|
E|---------------------------------------------------|

 won't be no stick-figure, silicone Barbie,”
G|-----------------------------------------------------|
D|---------------------2----------------------2--------|
A|----0---------2--4------4--0--------2--4--------4----|
E|-----------------------------------------------------|

 doll
G|-----------------------------------------------------|
D|--------------------4---------------------4----------|
A|----2-------4--5--------5--2-------4--5---------5----|
E|-----------------------------------------------------|

 “So, if that's what's you're into Then go ahead and move”
G|-------------------------------------------------------|
D|-------------------------------------------------------|
A|---------------------2---------------------2-----------|
E|-----0-------2--4--------4--0--------2--4------4-------|

 “along
G|-----------------------------------------------------|
D|------------------2----------------------------------|
A|----0------2--4------4--0----------------------------|
E|-----------------------------------------------------|

 “Because you know I'm all about that bass bout that bass no treble”
G|----------------------------------|
D|-------------------2--------------|
A|----0-------2--4------4--0--------|
E|----------------------------------|

 “I'm all 'bout that bass, 'bout that bass, no treble”
G|----------------------------------|
D|--------------------4-------------|
A|----2-------4--5--------5--2------|
E|----------------------------------|

 “I'm all 'bout that bass, 'bout that bass, no treble”
G|------------------------------------|
D|------------------------------------|
A|--------------------2---------------|
E|-----0------2--4--------4--0--------|

 “I'm all 'bout that bass, 'bout that bass”
G|------------------------------------|
D|-------------------2----------------|
A|----0------2--4---------4--0--------|
E|------------------------------------|

 “Because you know I'm all about that bass bout that bass no treble”
G|---------------------------------------------------|
D|---------------------2------------------2----------|
A|----0---------2--4-------4--0-----2--4-------4-----|
E|---------------------------------------------------|

 “I'm all 'bout that bass, 'bout that bass, no treble”
G|---------------------------------------------------|
D|---------------------4-------------------4---------|
A|----2---------4--5-------5--2-----4--5--------5----|
E|---------------------------------------------------|

 “I'm all 'bout that bass, 'bout that bass, no treble”
G|---------------------------------------------------|
D|---------------------------------------------------|
A|---------------------2--------------------2--------|
E|-----0-------2--4-------4--0-------2--4------4-----|

 “I'm all 'bout that bass, 'bout that bass”
G|---------------------------------------------------|
D|---------------------2------------------2----------|
A|----0---------2--4-------4--0-----2--4-------4-----|
E|---------------------------------------------------|

 “Because you know I'm all about that bass bout that bass no treble”
G|---------------------------------------------------|
D|---------------------2------------------2----------|
A|----0---------2--4-------4--0-----2--4-------4-----|
E|---------------------------------------------------|

 “I'm all 'bout that bass, 'bout that bass, no treble”
G|---------------------------------------------------|
D|---------------------4-------------------4---------|
A|----2---------4--5-------5--2-----4--5--------5----|
E|---------------------------------------------------|

 “I'm all 'bout that bass, 'bout that bass, no treble”
G|---------------------------------------------------|
D|---------------------------------------------------|
A|---------------------2--------------------2--------|
E|-----0-------2--4-------4--0-------2--4------4-----|

 “I'm all 'bout that bass, 'bout that bass”
G|---------------------------------------------------|
D|---------------------2------------------2----------|
A|----0---------2--4-------4--0-----2--4-------4-----|
E|---------------------------------------------------|


[Outro]

G|---------------------------------------------------|
D|---------------------2------------------2----------|
A|----0---------2--4-------4--0-----2--4-------4-----|
E|---------------------------------------------------|


G|---------------------------------------------------|
D|---------------------4-------------------4---------|
A|----2---------4--5-------5--2-----4--5--------5----|
E|---------------------------------------------------|


G|---------------------------------------------------|
D|---------------------------------------------------|
A|---------------------2--------------------2--------|
E|-----0-------2--4-------4--0-------2--4------4-----|


G|----------------------------------|
D|-------------------2--------------|
A|----0-------2--4------4---0-------|
E|----------------------------------|

            
            
Suggest correction
Creating personal tab
Creating personal tab
You can edit any tab online and save it as your Personal.

You can edit, replace or remove any tab part or add personal notes – all changes will be seen only by you.

Personal tabs can be accessed anytime from any device, even offline.
Learn more »
comments
print report bad tab
4 comments total. Showing first comments.
0 reply
versusthem 36 Oct 09, 2014 11:21 AM

this song is defiantly all about that bass

+1 reply
Unossofrus 1,639 Feb 05, 2015 08:39 AM

the part that goes:

G--------------------------------------
D----------------------2---------------
A----0---------2--4--------4--0--------
E--------------------------------------

should be:

G--------------------------------------
D----------------------2---------------
A----0---------3--4--------4--0--------
E--------------------------------------

everything else is spot on as far as I can tell :)

guest
You may want to rate the tab now too:
select rating
Wanna post a correction for this tab? Suggest correction