Oops, an error
Loading. Please wait.

All About That Bass bass

version 4
version 4

Whole song

  • This version is more complete, includes the Outro,... Show more
  • There are many variations, and I've written all of them out with timing.

Interactive

5,266 views 9 this week
1 commentread comment
1 2 3 4 5
x 6
add to favorites
×
Save as Personal and add changes to this tab that will be seen only by you. Learn more ›
×
You can save this tab as Personal to edit and correct it or add notes. All changes will be seen only by you. Learn more »
launch autoscroll
font size
0
reset
guitar tuner
edit
Autoscroll
slow
fast
+/-
esc
set tempo
stop
Author
Difficulty
About this tab version
There are many variations, and I've written all of them out with timing. Was this info helpful? Yes No
Section:        Lick #
========        ====
Opening Chorus: L1
Verse 1:        L2
Pre-Chorus 1:   L3
                L4
Chorus:         L1
Verse 2:        L5
Pre-Chorus 2:   L6
Chorus:         L1
                L7
Outro:          L8


[LICK #1]

G|-----------------|-----------------|-----------------|-----------------|
D|-----------2-----|-----------------|-----------4-----|-----------------|
A|-0-----3h4-----4-|-0---------------|-2-----4h5-----5-|-2---------------|
E|-----------------|-----------------|-----------------|-----------------|
   1 + 2 + 3 + 4 +   1 + 2 + 3 + 4 +   1 + 2 + 3 + 4 +   1 + 2 + 3 + 4 + 

G|-----------------|-----------------|-----------------|-----------------|
D|-----------------|-----------------|-----------2-----|-----------------|
A|-----------2-----|-----------------|-0-----3h4-----4-|-0---------------|
E|-0-----3h4-----4-|-0---------------|-----------------|-----------------|
   1 + 2 + 3 + 4 +   1 + 2 + 3 + 4 +   1 + 2 + 3 + 4 +   1 + 2 + 3 + 4 + 


[LICK #2]

G|-----------------|-----------------|-----------------|-----------------|
D|-----------2-----|-----------2-----|-----------4-----|-----------4-----|
A|-0-----3h4-----4-|-0-----3h4-----3-|-2-----4h5-----5-|-2-----4h5-------|
E|-----------------|-----------------|-----------------|---------------2-|
                                   m                                   m
   1 + 2 + 3 + 4 +   1 + 2 + 3 + 4 +   1 + 2 + 3 + 4 +   1 + 2 + 3 + 4 + 

G|-----------------|-----------------|-----------------|-----------------|
D|-----------------|-----------------|-----------2-----|-----------------|
A|-----------2-----|-----------2-----|-0-----3h4-----4-|-0-----3h4-------|
E|-0-----3h4-----4-|-0-----3h4-----0-|-----------------|-------------0h4-|
                                   m
   1 + 2 + 3 + 4 +   1 + 2 + 3 + 4 +   1 + 2 + 3 + 4 +   1 + 2 + 3 + 4 + 

G|-----------------|-----------------|-----------------|-----------------|
D|-----------2-----|-----------2-----|-----------4-----|-----------4-----|
A|-0-----3h4-----4-|-0-----3h4-----3-|-2-----4h5-----5-|-2-----4h5-------|
E|-----------------|-----------------|-----------------|-----------------|
                                   m
   1 + 2 + 3 + 4 +   1 + 2 + 3 + 4 +   1 + 2 + 3 + 4 +   1 + 2 + 3 + 4 + 

G|-----------------|-----------------|-----------------|-----------------|
D|-----------------|-----------------|-----------------|-----------------|
A|-----------2-----|-----------2-----|-----------------|-----------------|
E|-0-----3h4-----4-|-0-----3h4-----0-|-----------------|-----------------|
                                   m
   1 + 2 + 3 + 4 +   1 + 2 + 3 + 4 +   1 + 2 + 3 + 4 +   1 + 2 + 3 + 4 + 


[LICK #3]

G|-----------------|-----------------|-----------------|-----------------|
D|-----------2-----|-----------2-----|-----------4-----|-----------4-----|
A|-0-----3h4-----4-|-0-----3h4---4-0-|-2-----4h5-----5-|-2-----4h5---5-2-|
E|-----------------|-----------------|-----------------|-----------------|
   1 + 2 + 3 + 4 +   1 + 2 + 3 + 4 +   1 + 2 + 3 + 4 +   1 + 2 + 3 + 4 + 

G|-----------------|-----------------|-----------------|-----------------|
D|-----------------|-----------------|-----------2-----|-----------2---2-|
A|-----------2-----|-----------2-----|-0-----3h4-----4-|-0-----3h4---4---|
E|-0-----3h4-----4-|-0-----3h4-----0-|-----------------|-----------------|
                                   m
   1 + 2 + 3 + 4 +   1 + 2 + 3 + 4 +   1 + 2 + 3 + 4 +   1 + 2 + 3 + 4 + 


[LICK #4]

G|-----------------|-----------------|-----------------|-----------------|
D|-----------2-----|-----------2-----|-----------4-----|-----------4---4-|
A|-0-----3h4-----4-|-0-----3h4-----3-|-2-----4h5-----5-|-2-----4h5---5---|
E|-----------------|-----------------|-----------------|-----------------|
                                   m
   1 + 2 + 3 + 4 +   1 + 2 + 3 + 4 +   1 + 2 + 3 + 4 +   1 + 2 + 3 + 4 + 

G|-----------------|-----------------|-----------------|-----------------|
D|-----------------|-----------------|-----------2-----|-----------------|
A|-----------2-----|-----------2-----|-0-----3h4-----4-|-0---------------|
E|-0-----3h4-----4-|-0-----3h4-----0-|-----------------|-----------------|
                                   m
   1 + 2 + 3 + 4 +   1 + 2 + 3 + 4 +   1 + 2 + 3 + 4 +   1 + 2 + 3 + 4 + 


[LICK #5]

G|-----------------|-----------------|-----------------|-----------------|
D|-----------------|-----------2-----|-----------4-----|-----------4-----|
A|-0---------------|-0-----3h4-----3-|-2-----4h5-----5-|-2-----4h5-------|
E|-----------------|-----------------|-----------------|---------------2-|
                                   m                                   m
   1 + 2 + 3 + 4 +   1 + 2 + 3 + 4 +   1 + 2 + 3 + 4 +   1 + 2 + 3 + 4 + 

G|-----------------|-----------------|-----------------|-----------------|
D|-----------------|-----------------|-----------------|-----------------|
A|-----------2-----|-----------2-----|-----------------|-----------------|
E|-0-----3h4-----4-|-0-----3h4-----0-|-----------------|-----------------|
                                   m
   1 + 2 + 3 + 4 +   1 + 2 + 3 + 4 +   1 + 2 + 3 + 4 +   1 + 2 + 3 + 4 + 


[LICK #6]

G|-----------------|-----------------|-----------------|-----------------|
D|-----------2-----|-----------2-----|-----------4-----|-----------4-----|
A|-0-----3h4-----4-|-0-----3h4---4-0-|-2-----4h5-----5-|-2-----4h5---5-2-|
E|-----------------|-----------------|-----------------|-----------------|
   1 + 2 + 3 + 4 +   1 + 2 + 3 + 4 +   1 + 2 + 3 + 4 +   1 + 2 + 3 + 4 + 

G|-----------------|-----------------|-----------------|-----------------|
D|-----------------|-----------------|-----------2-----|-----------2---2-|
A|-----------2-----|-----------2-----|-0-----3h4-----4-|-0-----3h4---4---|
E|-0-----3h4-----4-|-0-----3h4-----0-|-----------------|-----------------|
                                   m
   1 + 2 + 3 + 4 +   1 + 2 + 3 + 4 +   1 + 2 + 3 + 4 +   1 + 2 + 3 + 4 + 

G|-----------------|-----------------|-----------------|-----------------|
D|-----------2-----|-----------2-----|-----------4-----|-----------4-----|
A|-0-----3h4-----4-|-0-----3h4---4-0-|-2-----4h5-----5-|-2-----4h5---5-2-|
E|-----------------|-----------------|-----------------|-----------------|
   1 + 2 + 3 + 4 +   1 + 2 + 3 + 4 +   1 + 2 + 3 + 4 +   1 + 2 + 3 + 4 + 

G|-----------------|-----------------|-----------------|-----------------|
D|-----------------|-----------------|-----------2-----|-----------------|
A|-----------2-----|-----------2-----|-0-----3h4-----4-|-0---------------|
E|-0-----3h4-----4-|-0-----3h4-----0-|-----------------|-----------------|
                                   m
   1 + 2 + 3 + 4 +   1 + 2 + 3 + 4 +   1 + 2 + 3 + 4 +   1 + 2 + 3 + 4 + 


[LICK #7]

G|-----------------|-----------------|-----------------|-----------------|
D|-----------2-----|-----------2-----|-----------4-----|-----------4-----|
A|-0-----3h4-----4-|-0-----3h4-----3-|-2-----4h5-----5-|-2-----4h5-------|
E|-----------------|-----------------|-----------------|---------------2-|
                                   m                                   m
   1 + 2 + 3 + 4 +   1 + 2 + 3 + 4 +   1 + 2 + 3 + 4 +   1 + 2 + 3 + 4 + 

G|-----------------|-----------------|-----------------|-----------------|
D|-----------------|-----------------|-----------2-----|-----------2-----|
A|-----------2-----|-----------2-----|-0-----3h4-----4-|-0-----3h4-----4-|
E|-0-----3h4-----4-|-0-----3h4-----0-|-----------------|-----------------|
                                   m                                   m
   1 + 2 + 3 + 4 +   1 + 2 + 3 + 4 +   1 + 2 + 3 + 4 +   1 + 2 + 3 + 4 + 


G|-----------------|-----------------|-----------------|-----------------|
D|-----------2-----|-----------2-----|-----------4-----|-----------4-----|
A|-0-----3h4-----4-|-0-----3h4-----3-|-2-----4h5-----5-|-2-----4h5---5---|
E|-----------------|-----------------|-----------------|---------------2-|
                                   m
   1 + 2 + 3 + 4 +   1 + 2 + 3 + 4 +   1 + 2 + 3 + 4 +   1 + 2 + 3 + 4 + 

G|-----------------|-----------------|-----------------|-----------------|
D|-----------------|-----------------|-----------2-----|-----------2-4-2-|
A|-----------2-----|-----------2-----|-0-----3h4-----4-|-0-----3h4-------|
E|-0-----3h4-----4-|-0-----3h4-----0-|-----------------|-----------------|
                                   m
   1 + 2 + 3 + 4 +   1 + 2 + 3 + 4 +   1 + 2 + 3 + 4 +   1 + 2 + 3 + 4 + 


[LICK #8]

G|-----------------|-----------------|-----------------|-----------------|
D|-----------2-----|-----------2---2-|-----------4-----|-----------4---4-|
A|-0-----3h4-----4-|-0-----3h4---4---|-2-----4h5-----5-|-2-----4h5---5---|
E|-----------------|-----------------|-----------------|-----------------|
   1 + 2 + 3 + 4 +   1 + 2 + 3 + 4 +   1 + 2 + 3 + 4 +   1 + 2 + 3 + 4 + 

G|-----------------|-----------------|-----------------|-----------------|
D|-----------------|-----------------|-----------2-----|-----------------|
A|-----------2-----|-----------2-----|-0-----3h4-----4-|-0---------------|
E|-0-----3h4-----4-|-0-----3h4-----0-|-----------------|-----------------|
                                   m
   1 + 2 + 3 + 4 +   1 + 2 + 3 + 4 +   1 + 2 + 3 + 4 +   1 + 2 + 3 + 4 + 



| h  hammer-on
| m  mute

            
            
Suggest correction
Creating personal tab
Creating personal tab
You can edit any tab online and save it as your Personal.

You can edit, replace or remove any tab part or add personal notes – all changes will be seen only by you.

Personal tabs can be accessed anytime from any device, even offline.
Learn more »
comments
print report bad tab
1 comment total.
0 reply
tobypleasant 10 10 hours ago

wow. U put effort into this tab. Thx

guest
You may want to rate the tab now too:
select rating
Wanna post a correction for this tab? Suggest correction