Oops, an error
Loading. Please wait.

Like Im Gonna Lose You chords

version 7
version 7

Whole song

Interactive

Video

3,013 views 96 this week
no commentswrite comment
1 2 3 4 5
2 more votes to show rating
add to favorites
×
Save as Personal and add changes to this tab that will be seen only by you. Learn more ›
×
You can save this tab as Personal to edit and correct it or add notes. All changes will be seen only by you. Learn more »
launch autoscroll
font size
0
reset
transpose
0
reset
display chords
guitar tuner
edit
Autoscroll
slow
fast
+/-
esc
set tempo
stop
Author
Difficulty
intermediate
Strumming
There is no strumming pattern for this song yet. and get +5 IQ
C                  Em              Am              F 
e|----0------0--------7------7--------5------5--------1------1-----|
B|----1------1--------8------8--------5------5--------1------1-----|
G|----0------0--------9------9--------5------5--------2------2-----|
D|----2------2--------9------9--------7------7--------3------3-----|
A|-3--3---3--3-3-5-7--7---7--7--------7------7--------3------3-0-2-|
E|-----------------------------8-7-5--5---5--5-5-3-1--1---1--1-----|

(if you can`t do the barre chord try)

  C                  Em              Am              F 
e|----0------0--------0------0--------0------0--------1------1-----|
B|----1------1--------0------0--------1------1--------1------1-----|
G|----0------0--------0------0--------2------2--------2------2-----|
D|----2------2---0-2--2---2--2--------2------2--------3------3-----|
A|-3--3---3--3-3------2------2-3-2-0--0---0--0-0------3------3-0-2-|
E|--------------------0------0-------------------3-1--1---1--1-----|

[Verse]
C    Em   Am   F
Hmm  Hmm  Hmm
C                                      Em
I found myself dreaming. Of silver and gold.
Am                            F
Like a scene from movie. That every broken heart knows.
C                                            Em
We were walking on moonlight. When you held me close.
Am                                        F
Split second and you disappeared. And then I was all alone.

[Chorus]
   C                    C               Em                     Em
I woke up in tears with you by my side. Breathe of relief and I realized.
Am           F                
No, we're not promised tomorrow.

[Verse]
             C                       Em
*So I'm gonna love you like I'm gonna lose you.
          Am                        F
I'm gonna hold you, like I'm saying goodbye.
               C                             Em
Wherever we're standing, I won't take you for granted.
                Am                                 F
Cause we'll never know when, when we'll run out of time.
            C                       Em
So I'm gonna love you like I'm gonna lose you.
            Am                       F       
So I'm gonna love you like I'm gonna lose you*

[Bridge]
C                      Em
In the blink of an eye. Just a whisper of smoke.
Am                              F
You could lose everything. The truth is you never know.
C                           Em
So I'll kiss you longer baby. Any chance that I get.
Am                                      F
And I'll make the most of the minutes. And love with no regret.

[Outro]
    C                                    C
So let's take the time to say what we want.
Em                            Em       
Use what we got before it's all gone.
Am            F                   
No, we're not promised tomorrow.

            
            
Suggest correction
Creating personal tab
Creating personal tab
You can edit any tab online and save it as your Personal.

You can edit, replace or remove any tab part or add personal notes – all changes will be seen only by you.

Personal tabs can be accessed anytime from any device, even offline.
Learn more »
Give kudos to tab author, rate the tab!
1 2 3 4 5
comments
print report bad tab
guest
You may want to rate the tab now too:
select rating
Wanna post a correction for this tab? Suggest correction