Oops, an error
Loading. Please wait.

Leave The Lights On tab

version 3
version 3

Whole song

by Meiko
327 views 3 this week
no commentswrite comment
1 2 3 4 5
2 more votes to show rating
add to favorites
×
Save as Personal and add changes to this tab that will be seen only by you. Learn more ›
×
You can save this tab as Personal to edit and correct it or add notes. All changes will be seen only by you. Learn more »
launch autoscroll
font size
0
reset
how to read this tab
guitar tuner
edit
Autoscroll
slow
fast
+/-
esc
set tempo
stop
Author
Difficulty
------------------------------------------------------------------------------
              Meiko – Leave The Lights On (Culture Code Remix)
------------------------------------------------------------------------------
Tabbed by: Stefan Premovic

Tuning: Standard
Capo:   2nd

Love this song and its remixes, so here is a dubstep cover. Enjoy!
Song link: https://www.youtube.com/watch?v=SvZtdaf11e0


Intro:
  Tempo = 140bpm
e|-----------------------------------------------------------------|
B|-----------------------------------------------------------------|
G|-----7-----7---------6-----6---------4-----4---------4-----4-----| x2
D|---9-----9-----0---7-----7-----0---5-----5-----5---5-----5-----0-|
A|-----------------------------------------------------------------|
E|-7-----7-----0---5-----5-----0---3-----3-----3---3-----3-----0---|


Verse 1 (palm muted):
   pm...
e|-----------------------------------------------------------------|
B|-----------------------------------------------------------------|
G|-----------------------------------------------------------------|
D|-4-4-4-4-4-4-4-4-2-2-2-2-2-2-2-2---------------------------------|
A|-2-2-2-2-2-2-2-2-0-0-0-0-0-0-0-0-5-5-5-5-5-5-5-5-5-5-5-5-5-5-5-5-|\
E|---------------------------------3-3-3-3-3-3-3-3-3-3-3-3-3-3-3-3-| \
                                   *                                 x2
e|-----------------------------------------------------------------| /
B|-----------------------------------------------------------------|/
G|-----------------------------------------------------------------|
D|-4-4-4-4-4-4-4-4-2-2-2-2-2-2-2-2---------------------------------|
A|-2-2-2-2-2-2-2-2-0-0-0-0-0-0-0-0-2-2-2-2-2-2-2-2-2-2-2-2-2-2-2-2-|
E|---------------------------------0-0-0-0-0-0-0-0-0-0-0-0-0-0-0-0-|
(*) – fade out slowly from here in the second repeat 


Chorus 1:
   B5              A5              G5
e|-----------------------------------------------------------------|
B|-----------------------------------------------------------------|
G|-4-4-4-4-4-4-4-4-2-2-2-2-2-2-2-2---------------------------------|
D|-4-4-4-4-4-4-4-4-2-2-2-2-2-2-2-2-5-5-5-5-5-5-5-5-5-5-5-5-5-5-5-5-|
A|-2-2-2-2-2-2-2-2-0-0-0-0-0-0-0-0-5-5-5-5-5-5-5-5-5-5-5-5-5-5-5-5-|\
E|---------------------------------3-3-3-3-3-3-3-3-3-3-3-3-3-3-3-3-| \
   B5              A5              E5              *                 x2                                  
e|-----------------------------------------------------------------| /
B|-----------------------------------------------------------------|/
G|-4-4-4-4-4-4-4-4-2-2-2-2-2-2-2-2---------------------------------|
D|-4-4-4-4-4-4-4-4-2-2-2-2-2-2-2-2-2-2-2-2-2-2-2-2-2-2-2-2-2-2-2-2-|
A|-2-2-2-2-2-2-2-2-0-0-0-0-0-0-0-0-2-2-2-2-2-2-2-2-2-2-2-2-2-2-2-2-|
E|---------------------------------0-0-0-0-0-0-0-0-0-0-0-0-0-0-0-0-|
(*) – stop here in the second repeat 


Instrumental 1 (all this x2; down-up strumming):
   Bm              A               G
e|-x-x-x-x-x-x-x-x-x-x-x-x-x-x-x-x-x-x-x-x-x-x-x-x-x-x-x-x-x-x-x-x-|
B|-3-3-3-3-3-3-3-3-2-2-2-2-2-2-2-2-0-0-0-0-0-0-0-0-0-0-0-0-0-0-0-0-|
G|-4-4-4-4-4-4-4-4-2-2-2-2-2-2-2-2-0-0-0-0-0-0-0-0-0-0-0-0-0-0-0-0-|
D|-4-4-4-4-4-4-4-4-2-2-2-2-2-2-2-2-0-0-0-0-0-0-0-0-0-0-0-0-0-0-0-0-|
A|-2-2-2-2-2-2-2-2-0-0-0-0-0-0-0-0-x-x-x-x-x-x-x-x-x-x-x-x-x-x-x-x-|
E|---------------------------------3-3-3-3-3-3-3-3-3-3-3-3-3-3-3-3-|
   Bm              A               Em                              
e|-x-x-x-x-x-x-x-x-x-x-x-x-x-x-x-x-x-x-x-x-x-x-x-x-x-x-x-x-x-x-x-x-|
B|-3-3-3-3-3-3-3-3-2-2-2-2-2-2-2-2-0-0-0-0-0-0-0-0-0-0-0-0-0-0-0-0-|
G|-4-4-4-4-4-4-4-4-2-2-2-2-2-2-2-2-0-0-0-0-0-0-0-0-0-0-0-0-0-0-0-0-|
D|-4-4-4-4-4-4-4-4-2-2-2-2-2-2-2-2-2-2-2-2-2-2-2-2-2-2-2-2-2-2-2-2-|
A|-2-2-2-2-2-2-2-2-0-0-0-0-0-0-0-0-2-2-2-2-2-2-2-2-2-2-2-2-2-2-2-2-|
E|---------------------------------0-0-0-0-0-0-0-0-0-0-0-0-0-0-0-0-|

   Bm              A               G
e|-x-x-x-x-x-x-x-x-x-x-x-x-x-x-x-x-x-x-x-x-x-x-x-x-x-x-x-x-x-x-x-x-|
B|-3-3-3-3-3-3-3-3-2-2-2-2-2-2-2-2-0-0-0-0-0-0-0-0-0-0-0-0-0-0-0-0-|
G|-4-4-4-4-4-4-4-4-2-2-2-2-2-2-2-2-0-0-0-0-0-0-0-0-0-0-0-0-0-0-0-0-|
D|-4-4-4-4-4-4-4-4-2-2-2-2-2-2-2-2-0-0-0-0-0-0-0-0-0-0-0-0-0-0-0-0-|
A|-2-2-2-2-2-2-2-2-0-0-0-0-0-0-0-0-x-x-x-x-x-x-x-x-x-x-x-x-x-x-x-x-|
E|---------------------------------3-3-3-3-3-3-3-3-3-3-3-3-3-3-3-3-|
   Bm              A               Em                              
e|-x-x-x-x-x-x-x-x-x-x-x-x-x-x-x-x-x-x-x-x-x-x-x-x-x---------------|
B|-3-3-3-3-3-3-3-3-2-2-2-2-2-2-2-2-0-0-0-0-0-0-0-0-0---------------|
G|-4-4-4-4-4-4-4-4-2-2-2-2-2-2-2-2-0-0-0-0-0-0-0-0-0---------------|
D|-4-4-4-4-4-4-4-4-2-2-2-2-2-2-2-2-2-2-2-2-2-2-2-2-2---------------|
A|-2-2-2-2-2-2-2-2-0-0-0-0-0-0-0-0-2-2-2-2-2-2-2-2-2---------------|
E|---------------------------------0-0-0-0-0-0-0-0-0---------------|


Verse 2 – same as Verse 1

Bridge:
   Bm                              C#m
e|-x-x-x-x-x-x-x-x-x-x-x-x-x-x-x-x-x-x-x-x-x-x-x-x-x-x-x-x-x-x-x-x-|
B|-3-3-3-3-3-3-3-3-3-3-3-3-3-3-3-3-5-5-5-5-5-5-5-5-5-5-5-5-5-5-5-5-|
G|-4-4-4-4-4-4-4-4-4-4-4-4-4-4-4-4-6-6-6-6-6-6-6-6-6-6-6-6-6-6-6-6-|
D|-4-4-4-4-4-4-4-4-4-4-4-4-4-4-4-4-6-6-6-6-6-6-6-6-6-6-6-6-6-6-6-6-|
A|-2-2-2-2-2-2-2-2-2-2-2-2-2-2-2-2-4-4-4-4-4-4-4-4-4-4-4-4-4-4-4-4-|\
E|-----------------------------------------------------------------| \
   D                               E               *                 x2
e|-x-x-x-x-x-x-x-x-x-x-x-x-x-x-x-x-x-x-x-x-x-x-x-x-x-x-x-x-x-x-x-x-| /
B|-7-7-7-7-7-7-7-7-7-7-7-7-7-7-7-7-9-9-9-9-9-9-9-9-9-9-9-9-9-9-9-9-|/
G|-7-7-7-7-7-7-7-7-7-7-7-7-7-7-7-7-9-9-9-9-9-9-9-9-9-9-9-9-9-9-9-9-|
D|-7-7-7-7-7-7-7-7-7-7-7-7-7-7-7-7-9-9-9-9-9-9-9-9-9-9-9-9-9-9-9-9-|
A|-5-5-5-5-5-5-5-5-5-5-5-5-5-5-5-5-7-7-7-7-7-7-7-7-7-7-7-7-7-7-7-7-|
E|-----------------------------------------------------------------|
(*) - stop here in the second repeat

e|-----------------------------------------------------------------|
B|-3---------------2---------------0-------------------------------|
G|-4---------------2---------------0-------------------------------| 
D|-4---------------2---------------0-------------------------------|
A|-2---------------0-----------------------------------------------|\
E|---------------------------------3-------------------------------| \
                                                                     x2
e|-----------------------------------------------------------------| /
B|-3---------------2---------------0-------------------------------|/
G|-4---------------2---------------0-------------------------------|
D|-4---------------2---------------2-------------------------------|
A|-2---------------0-----------------------------------------------|
E|---------------------------------0-------------------------------|


Chorus 2 - same as Chorus 1

Instrumental 2 – same as first one

Outro – same as Verse

************************************

Lyric:

/Verse 1/
We're in the dark, it's getting late
I really should go, he's waiting for me
We both know, it's not what it seems
We both know what's between the sheets

/Chorus 1/
I know that it's a secret and that I've got to keep it
But I want the lights on
Yeah, I want the lights on
And I don't want to run away anymore
Leave the lights on
Leave the lights on
I know that it's a secret and that I've got to keep it
But I want the lights on
Yeah, I want the lights on (x3)
Lights on (x6)

/Verse 2/
What will they say, what would they do
Would it be trouble if they knew
I'm trying hard to make you see
All that you are is all that I need

/Bridge/
Let it out x6

/Chorus 2/
I know that it's a secret and that I've got to keep it
But I want the lights on
Yeah, I want the lights on
And I don't want to run away anymore
Leave the lights on
Leave the lights on
I know that it's a secret and that I've got to keep it
But I want the lights on
Yeah, I want the lights on (x3)
Lights on (x6)

Suggest correction
Creating personal tab
Creating personal tab
You can edit any tab online and save it as your Personal.

You can edit, replace or remove any tab part or add personal notes – all changes will be seen only by you.

Personal tabs can be accessed anytime from any device, even offline.
Learn more »
Give kudos to tab author, rate the tab!
1 2 3 4 5
comments
print report bad tab
guest
You may want to rate the tab now too:
select rating
Wanna post a correction for this tab? Suggest correction