Oops, an error
Loading. Please wait.

Adholan solo tab

version 1
version 1

Solo

Whole song

317 views 1 this week
1 commentread comment
1 2 3 4 5
3 more votes to show rating
add to favorites
×
Save as Personal and add changes to this tab that will be seen only by you. Learn more ›
×
You can save this tab as Personal to edit and correct it or add notes. All changes will be seen only by you. Learn more »
launch autoscroll
font size
0
reset
how to read this tab
guitar tuner
edit
Autoscroll
slow
fast
+/-
esc
set tempo
stop
Author
Song: Adholan
Artist: Mekaal Hassan Band

(copy paste the entire text in note pad to get tabs in proper alignment)

Intro:

E----------------------------------|
A----------------------------------|
D----------------------------------|
G----------------------------------|
B------------6-8-10-8--3-5-6-5-3\2-|
E-6-5-3-6-5------------------------|

E-------------------------------|
A-------------------------------|
D-------------------------------|
G-------------------------------|
B------------6-8-10-8--3-5-6-5~-|
E-6-5-3-6-5---------------------|

E----------------------------------|
A----------------------------------|
D----------------------------------|
G----------------------------------|
B------------6-8-10-8--3-5-6-5-3\2-|
E-6-5-3-6-5------------------------|

E--------------------------------------------------------|
A--------------------------------------------------------|
D--------------------------------------------------------|
G--------------------------------------------------------|
B-2-3-2--5-6/10-8-11-10--6-8-10-8--3-5-6-5~--6-5-3-6-5~~-|
E--------------------------------------------------------|

Middle:

E----------------------------------------------------------|
A----------------------------------------------------------|
D----------------------------------------------------------|
G-6-7~~-9-10-9-7-10h12p10-9-7~~--9-10-----------10-9-------|
B-------------------------------------10-9h10-9------------|
E----------------------------------------------------6-5\3-|

E------------------------------------------------|
A------------------------------------------------|
D------------------------------------------------|
G------9-7~~--7h9-10----9-------9\7--7/9-10----9-|
B-9h10---------------10---10\11-------------10---|
E------------------------------------------------|

..................................
(this part is not complete and not 100% correct)


E-----------------------------------------------------|
A-----------------------------------------------------|
D-----------------------------------------------------|
G-----------------------------------------------------|
B-----------------------------------------------------|
E-7p6h8p6h8p6h8p6h8\10p8h10\11-8h10p8h10\11-9\10-5\2~-|


(this part is not complete)

Tabbed by: UMAR SHARIF
chiliblast@hotmail.com

            
            
Suggest correction
Creating personal tab
Creating personal tab
You can edit any tab online and save it as your Personal.

You can edit, replace or remove any tab part or add personal notes – all changes will be seen only by you.

Personal tabs can be accessed anytime from any device, even offline.
Learn more »
Give kudos to tab author, rate the tab!
1 2 3 4 5
comments
print report bad tab
1 comment total.
0 reply
jcrocker 170 Dec 01, 2007 12:17 PM

this has the intro part and the flute part rite i will tab the real solo he plays in the video when they show a close up
of him the solo solo but good job on this one later

guest
You may want to rate the tab now too:
select rating
Wanna post a correction for this tab? Suggest correction