Oops, an error
Loading. Please wait.

Andholan solo tab

version 2
version 2

Solo

329 views 1 this week
no commentswrite comment
1 2 3 4 5
3 more votes to show rating
add to favorites
×
Save as Personal and add changes to this tab that will be seen only by you. Learn more ›
×
You can save this tab as Personal to edit and correct it or add notes. All changes will be seen only by you. Learn more »
launch autoscroll
font size
0
reset
how to read this tab
guitar tuner
edit
Autoscroll
slow
fast
+/-
esc
set tempo
stop
Author
Difficulty
----------------------------------------------------------------------------
                             andholan - Mekaal hasan band
----------------------------------------------------------------------------
Tabbed by:Ahsen khan
Email:rocking_lead_guitar@hotmail.com

Tuning:standard (EADGBe)

well this is the solo of the song andholan the song is quiet old but since nobody tabbed 
solo solo some of my freinds also needed it so i tabbed it and the other guy tabbed the 
solo played on the guitar
not the real solo which he plays in the video ....i will also give the timing of it so 
easier to figure it out

Solo:

this is played in 6.02 secs

e|-------------------------------------------------------------------------|
B|---4s6h8p6h8p6h8p6s8h10p8h11---8-10-8-10s11--9s10--5s6-------------------|
G|-------------------------------------------------------------------------|
D|-------------------------------------------------------------------------|
A|-------------------------------------------------------------------------|
E|-------------------------------------------------------------------------|


play this really fast cuz its played in 7.62 secs
                                                   *this might be confusing
                                                   slide the top finger and
                                                   tap the second one t=tap
e|--10-9-7-----------------------------------------------------------------|
B|--------9-7-6------------------------------------------------------------|
G|-------------7-----------------------------------------------------------|
D|--------------8-7-5s7-8b--8-7-5------------------------------------------|
A|-------------------------------8-6-5------6t8t10t11t13*------------------|
E|------------------------------------9-7-4-4s6s-8-9s-10-------------------|

this part is played in 7.48 secs

e|---------------------------------------10-12-10-13--16--------------16b--|
B|----------------------------12--12--12----------------18----------18-----|
G|----------------------12---------------------------------17------17------|
D|-----------10--12--10----10--------------------------------18--18--------|
A|-----10-12---------------------------------------------------20----------|
E|10-12--------------------------------------------------------------------|


e|15b-13b|
B|-------|
G|-------|
D|-------|
A|-------|
E|-------|till here

now the fast part comes try to play like him hes pretty fast
and continue the scale till 9s15 ...its played in 6.14 secs =p

e|-------------------------------------------------------------------------|
B|-------------------------------------------------------------13-15-16--13|
G|-------------------------------13-12-13---------------16-17-16-------16--|
D|---------------------------------------13-12-10-12-13--------------------|
A|-----------------------10-12-13------------------------------------------|
E|4-5--5-6-8-7-8-10-10-12--------------------------------------------------|

continue the scale

e|-----------------9s19---9s17---9s15--------------------------------------|
B|15-16-17-19-17-15--------------------------------------------------------|
G|-------------------------------------------------------------------------|
D|-------------------------------------------------------------------------|
A|-------------------------------------------------------------------------|
E|-------------------------------------------------------------------------|

| /  slide up
| \  slide down
| h  hammer-on
| p  pull-off
| ~  vibrato
| +  harmonic
| x  Mute note

well i guess this is it took me days to finalize this anyways hope it gets
accepted have fun with it later there might be some notes missing in the last part but 
rest i think its pretty accurate plus he uses a effets in the song as well so dont worry 
amazing later contact me for improvements on the email address
============================================================================

            
            
Suggest correction
Creating personal tab
Creating personal tab
You can edit any tab online and save it as your Personal.

You can edit, replace or remove any tab part or add personal notes – all changes will be seen only by you.

Personal tabs can be accessed anytime from any device, even offline.
Learn more »
Give kudos to tab author, rate the tab!
1 2 3 4 5
comments
print report bad tab
guest
You may want to rate the tab now too:
select rating
Wanna post a correction for this tab? Suggest correction