Oops, an error
Loading. Please wait.

Don't Worry My Girl Chords

33 views 1 this week
no commentswrite comment
1 2 3 4 5
3 more votes to show rating
add to favorites
launch autoscroll
font size
0
reset
transpose
0
reset
display chords
guitar tuner
×
Best way to learn
"Don't Worry My Girl"
Autoscroll
slow
fast
+/-
esc
set tempo
stop
aki lesd dejo otro tema de reggae: aora es de mekatelyu con los cafres
un gran tema ke se llama dont worry my girl ojala les guste.
disto

intro:
E-------------8-10-------------------------------10-------
B--8-8-11---------10-------------------------------10-----
G-----------------------------7-8-7-8-7-8-7---------------
D---------------------------------------------------------
A---------------------------------------------------------
E---------------------------------------------------------

E----------8-10------------------------------13-8--10--
B---8-8-11------10--------8-8-10-10--8-11-8------------
G---------------------8-8------------------------------
D------------------------------------------------------
A------------------------------------------------------
E------------------------------------------------------

Gm-Dm  Gm-Dm  Gm-Dm
Cm-Cm  Dm-Dm               X2
              Gm                              Dm
si esta noche el frio entra en tu cama
Gm                              Dm
y la soledad te pretendiera abrazar
Cm
no temas mi amor
               Gm
que a tu lado yo estoy

                                           Dm
si esta tarde el cielo se llegara a nublar
             Gm                                 Dm
con la lluvia y los truenos te pudieran asustar
       Cm
no temas mi amor
  Gm
tu sol sere yo
  Cm
dont worry mi amor
  Dm
no temas my love

     Gm                 Dm
dont worry my girl
    Gm                   Dm
dont worry my girl
  Gm                   Dm
dont worry my girl
  Cm                                          Dm
dont worry, please dont worry my girl

intro

           Gm                       Dm
si los dias se te hacen eternos
          Gm                    Dm
y la aguja del reloj no mueve el tiempo
    Cm
no temas mi amor
        Gm
igual siento yo
                                          Dm
es dificilcruzar en 2 segundos el mar
         Gm                      Dm
llegar a tu costa y poderte abrazar
      Cm
no temas mi amor
  Gm
a casa yo voy
   Cm
no temas mi amor
   Dm
dont worry mi love

Gm                    Dm
don worry my girl
Gm                    Dm
dont worry my girl
Gm                    Dm
dont worry my girl
     Cm                                             Dm
dont worry, please dont worry my girl

                     Gm                             Dm
porque quiero que lo nuestro vaya siempre por el bien
                  Gm                                   Dm
porque dia a dia tengo mas razones que creer
                   Gm                                       Dm
porque se lo que es verdad y nada me va a convencer
   Cm                      Dm
no tienes porque temer
   Cm                      Dm
no tienes porque temer

Gm-Dn-Gm-Dm-Gm-Dm
Cm-Cm-Dm-Dm
se repite hasta el final del tema

ahi nos vimos:Disto
Suggest correction
Give kudos to tab author, rate the tab!
1 2 3 4 5
comments
print report bad tab
guest
You may want to rate the tab now too:
select rating
Wanna post a correction for this tab? Suggest correction