Oops, an error
Loading. Please wait.

I Think Im Crazy tab

565 views 27 this week
1 commentread comment
1 2 3 4 5
x 4
add to favorites
×
Save as Personal and add changes to this tab that will be seen only by you. Learn more ›
×
You can save this tab as Personal to edit and correct it or add notes. All changes will be seen only by you. Learn more »
launch autoscroll
font size
0
reset
how to read this tab
guitar tuner
edit
Autoscroll
slow
fast
+/-
esc
set tempo
stop
About this tab version
Capo on 7, but you can change to fit you voice. Was this info helpful? Yes No
[Intro]

e|---------------------------------------------------------------------------|
B|---------------------------------------------------------------------------|
G|-----6-----4---------------------------------------------------------------|
D|-----6-----4---------------------------------------------------------------|
A|-4-4---2-2-----------------------------------------------------------------|
E|---------------------------------------------------------------------------|
repeat this 3 times for intro then play Asus2 for intro

[Verse]

e|---------------------------------------------------------------------------|
B|---------------------------------------------------------------------------|
G|-----6-----4---------------------------------------------------------------|
D|-----6-----4---------------------------------------------------------------|
A|-4-4---2-2-----------------------------------------------------------------|
E|---------------------------------------------------------------------------|
Play this about 9 or 10 times for verse, then Asus2 leading into chorus


[Chorus]

e|---------------------------------------------------------------------------|
B|---------------------------------------------------------------------------|
G|----6-------------------4--------------------------------------------------|
D|----6-------------------4--------------------------------------------------|
A|---------------------------------------------------------------------------|
E|---------------------------------------------------------------------------|
      {Tangled in a nest deep down in your heart}
e|---------------------------------------------------------------------------|
B|---------------------------------------------------------------------------|
G|----6-------------------------------4--------------------------------------|
D|----6-------------------------------4--------------------------------------|
A|---------------------------------------------------------------------------|
E|---------------------------------------------------------------------------|
   {I'm breathing through your lungs, wanna spend this time apart}
Suggest correction
Creating personal tab
Creating personal tab
You can edit any tab online and save it as your Personal.

You can edit, replace or remove any tab part or add personal notes – all changes will be seen only by you.

Personal tabs can be accessed anytime from any device, even offline.
Learn more »
comments
print report bad tab
1 comment total.
0 reply
Phanicathedisc0 31 Jan 13, 2017 02:20 PM

pls let me know if I made a mistake :0

guest
You may want to rate the tab now too:
select rating
Wanna post a correction for this tab? Suggest correction