Oops, an error
Loading. Please wait.

Sippy Cup bass

version 1
version 1

Whole song

4,630 views 6 this week
1 commentread comment
1 2 3 4 5
x 6
add to favorites
×
Save as Personal and add changes to this tab that will be seen only by you. Learn more ›
×
You can save this tab as Personal to edit and correct it or add notes. All changes will be seen only by you. Learn more »
launch autoscroll
font size
0
reset
guitar tuner
edit
Autoscroll
slow
fast
+/-
esc
set tempo
stop
Author
Artist: Melanie Martinez
Song: Sippy Cup
Album: Crybaby
Tuning: Standard

[Chorus]
G|--------------------------------|
D|--------------------------------|
A|-6(x16)-3(x16)---------1(x16)---|
E|---------------3(x16)-----------| x2

[Verse]
G|--------------------------------|
D|--------------------------------|
A|-6(x16)-3(x16)---------1(x16)---|
E|---------------3(x16)-----------| x2

[Chorus]
G|--------------------------------|
D|--------------------------------|
A|-6(x16)-3(x16)---------1(x16)---|
E|---------------3(x16)-----------| x2

[Post chorus]
(Sippy cup, s-s-sippy cup)
G|--------------------------------|
D|--------------------------------|
A|-6(x16)-3(x16)------------------|
E|---------------3(x32)-----------|

[Verse]
G|--------------------------------|
D|--------------------------------|
A|-6(x16)-3(x16)---------1(x16)---|
E|---------------3(x16)-----------| x2

[Chorus]
G|--------------------------------|
D|--------------------------------|
A|-6(x16)-3(x16)---------1(x16)---|
E|---------------3(x16)-----------| x2

[Post chorus]
(Sippy cup, s-s-sippy cup)
G|--------------------------------|
D|--------------------------------|
A|-6(x16)-3(x16)---------1(x16)---|
E|---------------3(x16)-----------|

            
            
Suggest correction
Creating personal tab
Creating personal tab
You can edit any tab online and save it as your Personal.

You can edit, replace or remove any tab part or add personal notes – all changes will be seen only by you.

Personal tabs can be accessed anytime from any device, even offline.
Learn more »
comments
print report bad tab
1 comment total.
0 reply
theelimonstertv 10 Nov 11, 2015 09:29 AM

Very good!

guest
You may want to rate the tab now too:
select rating
Wanna post a correction for this tab? Suggest correction