Oops, an error
Loading. Please wait.

Soap bass

2,057 views 6 this week
1 commentread comment
1 2 3 4 5
x 5
add to favorites
×
Save as Personal and add changes to this tab that will be seen only by you. Learn more ›
×
You can save this tab as Personal to edit and correct it or add notes. All changes will be seen only by you. Learn more »
launch autoscroll
font size
0
reset
guitar tuner
edit
Autoscroll
slow
fast
+/-
esc
set tempo
stop
Author
Difficulty
-------------------------------------------------------------------------------
                             SOAP – Melanie Martinez
-------------------------------------------------------------------------------
Tabbed by: cesare_moon
E-mail: 

Artist: Melanie Martinez
Album: Cry Baby
Year: 2015

Tuning: EADG

| /  slide up
| \  slide down
| h  hammer-on
| p  pull-off
| ~  vibrato
| +  harmonic
| x  Mute note


Pre-chorus – 00.34 – 00.57

G|---------------------------------------------------------------------------|
D|---------------------------------------------------------------------------|
A|-5~------------------2~----------------------------------------------------|
E|-------------------------------------------2~------------------------------| x4

Chorus – 00.57 – 01.20

G|---------------------------------------------------------------------------|
D|---------------------------------------------------------------------------|
A|-3~------------------------------------------------------------------------|
E|---------------------5~--------------------0~------------------3~----------| x3

G|---------------------------------------------------------------------------|
D|---------------------------------------------------------------------------|
A|-3---3---3---3-------------------------------------------------------------|
E|---------------------5---5---5---5---------0--0--0--0---3------------------|

Instrumental – 01.20 – 01.31

G|---------------------------------------------------------------------------|
D|---------------------------------------------------------------------------|
A|-3~-----3-----3------------------------------------------------------------|
E|------------------5~-----5-----5----0~----0-----0-----3~----3----3---------| x2

Verse (Rest for first bar) – 01.37 – 01.54

G|---------------------------------------------------------------------------|
D|---------------------------------------------------------------------------|
A|-5--5--5--5--2--2--2--2----------------------------------------------------|
E|-------------------------2--2--2--2--2--2--2--2----------------------------| x3

Pre-Chorus – 01.54 – 02.17

G|---------------------------------------------------------------------------|
D|---------------------------------------------------------------------------|
A|-5--5--5--5--2--2--2--2----------------------------------------------------|
E|-------------------------2--2--2--2--2--2--2--2----------------------------| x4

Chorus – 02.17 – 02.40

G|---------------------------------------------------------------------------|
D|---------------------------------------------------------------------------|
A|-3~------------------------------------------------------------------------|
E|---------------------5~--------------------0~------------------3~----------| x3

G|---------------------------------------------------------------------------|
D|---------------------------------------------------------------------------|
A|-3---3---3---3-------------------------------------------------------------|
E|---------------------5---5---5---5---------0--0--0--0---3------------------|

Instrumental – 02.40 – 03.03

G|---------------------------------------------------------------------------|
D|---------------------------------------------------------------------------|
A|-3~-----3-----3------------------------------------------------------------|
E|------------------5~-----5-----5----0~----0-----0-----3~----3----3---------| x2

Chorus 03.03 – 03.25

G|---------------------------------------------------------------------------|
D|---------------------------------------------------------------------------|
A|-3~-----3-----3------------------------------------------------------------|
E|--------------------5~-----5-----5----0~----0-----0-----3~----3----3-------| x2

G|---------------------------------------------------------------------------|
D|----6-----5------3---------------------------------------------------------|
A|-----------------------5---------------------------------------------------|
E|-0------0-----0-----0------5-----5----0-----0-----0-----3-----3----3-------|


G|---------------------------------------------------------------------------|
D|---------------------------------------------------------------------------|
A|-3~-----3-----3------------------------------------------------------3~----|
E|------------------5~-----5-----5----0~----0-----0-----3~----3----3---------|  

            
            
Suggest correction
Creating personal tab
Creating personal tab
You can edit any tab online and save it as your Personal.

You can edit, replace or remove any tab part or add personal notes – all changes will be seen only by you.

Personal tabs can be accessed anytime from any device, even offline.
Learn more »
comments
print report bad tab
1 comment total.
0 reply
Bianathetacocat 74 Feb 06, 2016 07:36 PM

Nice! it's pretty accurate.

guest
You may want to rate the tab now too:
select rating
Wanna post a correction for this tab? Suggest correction