Oops, an error
Loading. Please wait.

Chaconne Tab

482 views 1 this week
no commentswrite comment
1 2 3 4 5
please rate
add to favorites
launch autoscroll
font size
0
reset
how to read this tab
guitar tuner
Tab Pro tools
  • play this tab
  • loop segment
  • change instrument
  • show fretboard
  • metronome
×
Best way to learn
"Chaconne"
Autoscroll
slow
fast
+/-
esc
set tempo
stop
see key below tab

3/2  Moderato

[f]
1 H.    | H                               IV W     H
E-2-----0-2---|-2-----0-2---|-2-----0-2---|:------------|
B-3-----------|-2-----------|-2-----------|:-5-----4----|
G-------------|-0-----------|-0-----------|:-4======----|
D-------------|-------------|-------------|:-4======----|
A-2========---|-2========---|-1-----------|:-4======----|
E-------------|-------------|-------------|:==----------|
  a 2   m i     4     m i     4     m i      3     m
  m 3           3             3                    
  p 1           2             1

5                                    >>>> II W     H
E-0-------0---|-0-------0---|-------------|:------------|
B-0-----3-----|-0-----3-----|-3-----2-3---|:-2----------|
G-1-----------|-0-----------|-0-----------|:-------4----|
D-------------|-------------|-------------|:-4======----|
A-2-----------|-------------|-1-----------|:-2======----|
E-------------|-3-----------|-------------|:==----------|
  1     i m     3     i m     4     i m      a     m
  2     4             4       1     2        i     4
                                             p
                                             3
9
E-2-----0-2---|-7-----5-7---|-7-----5-7---|-5-----3----|
B-3-----------|-7-----------|-6-----------|-5----------|
G-------------|-0-----------|-0-----------|-0----------|
D-------------|-------------|-------------|------------|
A-2-----------|-------------|-------------|-4----------|
E-------------|-7-----------|-7-----------|------------|
  2             4     1 4     4     1 4     4     1
  3             3             2             3
  1             2             3             2

13                           I             II
E-2-----0-----|-------------|:-------------|:-----------|
B---------3---|-3-----2-0---|:-3-----2-----|:-----------|
G-2-----------|-0-----------|:-1-------4---|:-3---------|
D-0-----------|-------------|:-------------|:-2-----4---|
A-------------|-------------|:-------------|:-----------|
E-------------|-0-----------|:-1-----------|:-2======---|
  2       3     3            :==     2 4    :==     3
  1                            3              2

Repeat measures 1-8

17
  H.    | H     H.    | H     W.            W.
E-2-----0-2---|-5-----3-5---|-------------|------------|
B-3-----------|-5-----------|-3========---|-3======----|
G-------------|-0-----------|-0========---|-0======----|
D-------------|-------------|-------------|-2-----0----|
A-2========---|-4========---|-0-----2-4---|------------|
E-------------|-------------|-------------|------------|
  W.            W.    1 4     H     | H     W     H
  2             4             3
  3             3
  1             2

II             22                            >>>> rit.
E:-2-----------|-------------|-------------|-----------|
B:-3-----5-3---|-3-----2-----|-2-----0-2/--|-5-----3---|
G:-------------|-4-------4---|-0-----------|-----------|
D:-------------|-2-----------|-2-----------|-0---------|
A:-2-----------|-------------|-0-----------|-----------|
E:==-----------|-4-----------|-------------|-----------|
   2     4 2     2       4     3       3     3     1
                 4
                 3

(a tempo) Repeat measures 1-16 and then again measures 1-8

25  | | | | |
E-}---2---2---|-}---2---2---|-}---2---2---|-}---0---0---|
B---3---3---3-|---2---2---2-|---1---1---1-|---0---0---0-|
G-------------|-------------|-------------|-------------|
D-------------|-------------|-------------|-------------|
A-2==========-|-1==========-|-0-----------|-------------|
E-------------|-------------|-------------|-3-----------|
  W.  a m a m   1   4 3           4 2       3
  2   3 4          <<<<<<<<<
[mp]

29                           I  >>>>>>>>   II      rit.
E-------------|-------------|:-------------|:-}---2---2---|
B-}---3---3---|-}---3---3---|:-}---3---3---|:-------------|
G---4---4---4-|---0---0---0-|:---1---1---1-|:---3---3---3-|
D-------------|-------------|:-------------|:-------------|
A-------------|-------------|:-------------|:-------------|
E-2-----------|-0-----------|:-1-----------|:-2-----------|
  p   m i m i       4        :==   4        :== 2 a i a i
  1   2 3                                     

 a tempo      34
E-}---2---2==-|-}---2---2---|-}---2---2---|-}---0---0---|
B---3---3-----|---2---2-----|---1---1-----|---0---0-----|
G-------------|-------------|-------------|-------------|
D-------------|-------------|-------------|-------------|
A-2========-2-|-1---------1-|-0---------0-|-------------|
E-------------|-------------|-------------|-3---------3-|
[mf]                    <<<<

37                           I        >>>> II 
E-------------|-------------|:-------------|:-------------|
B-}---3---3---|-}---3---3---|:-}---3---3---|:-------------|
G---4---4-----|---0---0-----|:---1---1-----|:-}---3---3---|
D-------------|-------------|:-------------|:-------------|
A-------------|-------------|:-------------|:---4---4-----|
E-2---------2-|-0---------0-|:-1---------1-|:-2---------2-|
                             :==            :==   2 3

41 [mp]
E-------------|-------------|-------------|
B-------------|-------------|-------------|
G-}---4---4---|-}---4---4---|-}---4---4---|
D---0---0---0-|---0---0---0-|---0---0---0-|
A-2==========-|-0==========-|-------------|
E-------------|-------------|-4-----------|
  p   m i m i       <<<<      3
      4
44
E-------------|-------------|-------------|
B-------------|-------------|-------------|
G-}---4---4---|-}---4---4---|-}---3---3---|
D---0---0---0-|---0---0---0-|-------------|
A-------------|-------------|---4---4---4-|
E-3-----------|-2-----------|-2-----------|
  2             1

47 [mf]
E-------------|-------------|-------------|
B-------------|-------------|-------------|
G-}---4---4==-|-}---4---4---|-}---4---4---|
D---0---0-----|---0---0-----|---0---0-----|
A-2========-2-|-0---------0-|-------------|
E-------------|-------------|-4---------4-|
                 <<<< 

50                                   rit.
E-------------|-------------|-------------|
B-------------|-------------|-------------|
G-}---4---4---|-}---4---4---|-}---3---3---|
D---0---0-----|---0---0-----|-------------|
A-------------|-------------|---4---4-----|
E-3---------3-|-2---------2-|-2---------2-|
                                 >>>>>>>

Repeat whole piece with all repeats.

Coda           
E-------------|------------||
B-}-----0-----|----0-------||
G-------------|------------||
D-----1---1---|---1--------||
A---2-------2-|--2---------||
E-2-----------|-2----------||
  p p   a i
  2 3 1

=======================================================
=======================================================
SYMBOLS
                          IV
W - whole note             :
H - half note              :
| - quarter note           :  -  barre
} - quarter rest           :
W. - whole dotted note     :
H. - half dotted note      ==

-3/---- - slide

[mf] - expression

<<<<< - crescendo
>>>>> - decrescendo
rit. - to get slower
a tempo - back to previous temp
=======================================================
=======================================================
comments
We did not receive enough feedback on this tab! Please rate:
print report bad tab
1 2 3 4 5
I want to post or [tab]
guest
You may want to rate the tab now too:
select rating
Please do not post tabs as comments. Select "correction" instead!