Oops, an error
Loading. Please wait.

Built To Last Tab

version 1
version 1

Intro

Whole song

Interactive

4,108 views 1 this week
no commentswrite comment
1 2 3 4 5
please rate
add to favorites
launch autoscroll
font size
0
reset
how to read this tab
guitar tuner
Tab Pro tools
  • play this tab
  • loop segment
  • change instrument
  • show fretboard
  • metronome
×
Best way to learn
"Built To Last"
Autoscroll
slow
fast
+/-
esc
set tempo
stop
Contributor
Difficulty
Capo
novice
6th fret
(Okay, I'm from Holland, so there may be a few mistakes in the texts, sorry!...)

Capo 6th fret.

First, thanks to the one who figured the chords out. I based this tab on those chords, 
thanks for that:)

Well, I've been listening to this song for 3 days now, and I think it's great! Actually, 
a huge McFly fan, but this song's just awesome, I love it:)

Anyway, this should be the intro part(which is actually played on the piano)

G
--------------------------------------|
--------------------------------------|
-------4--------4--------4--------4---|
--4h5------4h5-----4-4h5----4h5-------|
--------------------------------------|
--------------------------------------|
Em7
--------------------------------------|
-------3----------3---------3-------3-|
-2-2h4------2h4-------2-2h4----2h4----|
--------------------------------------|
--------------------------------------|
--------------------------------------|
G                        D         G
--------------------------------------|
---------5--------5------5-7----------|
---4-4h5------4h5------------ 7--5----|
----------------------------------- 7-|
--------------------------------------|
--------------------------------------|

For the end:
Play the intro, except the 'G-D-G part,' instead of that play the G and Em7 thing a few 
for timing listen to the song:)
The end should go like this:

(Slower)

Em7                  G    D  G
--------------------------------------|
--------3-----------------------------|
--2-2h4-----4--2----------------------|
--------------------5--5--4--5--------|
--------------------------------------|
--------------------------------------|

That's all!! I don't know it's 100% right, but it sounds nice though, so have fun with 
it's not that hard to play:)
comments
We did not receive enough feedback on this tab! Please rate:
print report bad tab
1 2 3 4 5
I want to post or [tab]
guest
You may want to rate the tab now too:
select rating
Please do not post tabs as comments. Select "correction" instead!