Oops, an error
Loading. Please wait.

Built To Last Tab

version 3
version 3

Intro

Whole song

Interactive

3,175 views 12 this week
no commentswrite comment
1 2 3 4 5
please rate
add to favorites
launch autoscroll
font size
0
reset
how to read this tab
guitar tuner
Tab Pro tools
  • play this tab
  • loop segment
  • change instrument
  • show fretboard
  • metronome
×
Best way to learn
"Built To Last"
Autoscroll
slow
fast
+/-
esc
set tempo
stop
Contributor
Difficulty
intermediate
Hi all, hope you like this great song. ^^

Melee
Build to Last
Capo#1

Standard Tuning
Intro; x2

E---------0------0--------0-------0-----------3------3--------3------3--|
B-----0-1----0-1----0-0-1-----0-1-------3-3-5----3-5----3-3-5----3-5----|
G-----------------------------------------------------------------------|
D-----------------------------------------------------------------------|
A-----------------------------------------------------------------------|
E-----------------------------------------------------------------------|

E---------5------5--7-7-5-3-1-------0-----0--------0------0-------------|
B---5-5-6----5-6----------------0-1---0-1----0-0-1----0-1---------------|
G-----------------------------------------------------------------------|
D-----------------------------------------------------------------------|
A-----------------------------------------------------------------------|
E-----------------------------------------------------------------------|

C                                 C/B
I've looked for love in stranger places,
Am         F                 G
but never found someone like you.
C                            C/B                     Am
Someone whose smile makes me feel I've been holding back,
                F                G
and now there's nothing I can't do.

    Em                               F
* 'Cause this is real, and this is good.
       Em                           F
It warms the inside just like it should,
   Gsus             G                        C
but most of all, most of all, it's built to last.

C                                C/B
All of our friends saw from the start.
Am             F             G
So why didn't we believe it too?
C
Whoa yeah, now look where we are.
C/B
You're in my heart now.
Am             F                G
And there's no escaping it for you.


[Repeat *]

SOLO x2

E---------15----------17-15---------15---------17-15-13-12-12-10-10-8-8-10-10-|
B-12-13-12----12-13-12------12-13-12---12-13-12-------------------------------|
G-----------------------------------------------------------------------------|
D-----------------------------------------------------------------------------|
A-----------------------------------------------------------------------------|
E-----------------------------------------------------------------------------|


Em              F                         Em                    F
Walking on the hills that night with those fireworks and candlelight
Em              F                 G
You and I were made to get love right

[Repeat *]

Em                              F
'Cause you are the sun in my universe,
Em                                       F
considered the best when we've felt the worst
Gsus               G
and most of all, most of all,
Gsus             G
most of all, most of all
Gsus            G
most of all, most of all
                C
it's built to last.

Outro;

E---------0------0--------0-------0-----------3------3--------3------3--|
B-----0-1----0-1----0-0-1-----0-1-------3-3-5----3-5----3-3-5----3-5----|
G-----------------------------------------------------------------------|
D-----------------------------------------------------------------------|
A-----------------------------------------------------------------------|
E-----------------------------------------------------------------------|

E------0------0--------0------0---------3------3-----------3-------------|
B-0-0-1---0-1----0-0-1----0-1------3-3-5----3-5----3--3--5-----5-3-1-0-1-|
G------------------------------------------------------------------------|
D------------------------------------------------------------------------|
A------------------------------------------------------------------------|
E------------------------------------------------------------------------|
comments
We did not receive enough feedback on this tab! Please rate:
print report bad tab
1 2 3 4 5
I want to post or [tab]
guest
You may want to rate the tab now too:
select rating
Please do not post tabs as comments. Select "correction" instead!