Oops, an error
Loading. Please wait.

Cheque Al Portamor Tab

by Melendi
710 views 3 this week
no commentswrite comment
1 2 3 4 5
3 more votes to show rating
add to favorites
launch autoscroll
font size
0
reset
how to read this tab
guitar tuner
×
Best way to learn
"Cheque Al Portamor"
Autoscroll
slow
fast
+/-
esc
set tempo
stop
Esta canción en el CD la tocan en el tono C, pero en vivo en A#
si prefieren la  duda se pueden contactar conmigo
soy argentino pero me encanta esta banda:

CONTACTO:

E-mail:   sebastian_1989@
Facebook: 

INTRO:

E|--1-----1--|---3-----3--|---5-----5---6-5------|
B|------3----|-------6----|-------6---------8-6--|
G|----2------|-----5------|-----5----------------|
D|-----------|------------|----------------------|
A|-----------|------------|----------------------|
E|-----------|------------|----------------------|

|---1-------1-0------0----|----------1----|
|---------3--------3---3--|------3--------|
|-------2-----------------|----2---2------|
|-----0-------------------|--0------------|
|-------------------------|---------------|
|-------------------------|---------------|


A#      C                   Dm
Educadamente te daría un consejo,
que probablemente todavía no sabes,
el demonio sabe mucho más por viejo
que por ser el rey de todos nuestros males.

F                                 C
Con la realidad te vas a dar de bruces
Dm                                       A#
si piensas que un euro es mejor que un detalle,
                                      Dm
porque una ventana que da a un patio luces
F                                      C
puede brillar más que una que da a la calle.
        Dm              A#          F            C
Y ahora vete en busca de aquella cartera que sostenga
          A#           C               Dm
tus tratamientos de belleza, mientras tengas,
          F                          C
porque sabrás que eso no dura eternamente, amiga mía.

         A#           C                      Dm
Así que vete en busca de cada delirio de grandeza
       C            A#          D#                     C
y si la vida te endereza y tu caballo ganador se te despeña
             A#                                Dm    Dm-C
recuerda que tú rechazaste ser la flor para mi vida,
F                                   C
por ser sólo un pétalo en la de ese tipo.

A#                           Dm
Que pena me das niñita consentida,
F                                   C
con tu cheque falso al portamor vencido...
 (Silencio)        F
Aunque pensándolo bien:
                        C
¿Cuál sería nuestro futuro?
                    Dm
Tú que prefieres un peso que un beso
                         A#
y yo no tengo ni un puto duro.
                  C
Tú que sólo comes hojas
                Dm
y yo sólo carne roja.
                      F
Yo vivo en un cuento chino
                        C
y tú en una peli de Almodóvar.
                   A#
Tú que presumes de atea
                         Dm
mientras yo vivo de la marea
                          C
que un dios puso en mi garganta.

Y ahora vete en busca de aquella cartera
que sostenga tus tratamientos de belleza, mientras tengas,
porque sabrás que eso no dura eternamente, amiga mía.

Así que vete en busca de cada delirio de grandeza
y si la vida te endereza y tu caballo ganador se te despeña
recuerda que tú rechazaste ser la flor para mi vida,
por ser sólo un pétalo en la de ese tipo.

Que pena me das niñita consentida,
con tu cheque falso al portamor vencido...

          A#
Yo sólo espero que esto no suene a reproche
                                       F
pero cuando no te quede techo que alcanzar
               C            A#
te sentirás vacía y como un jarro de agua fría será
                                  F    C - Dm - C - A#
cuando mires atrás, Cuando mires atrás

FINAL:

E|--1-----1--|---3-----3--|---5-----5---6-5------|
B|------3----|-------6----|-------6---------8-6--|
G|----2------|-----5------|-----5----------------|
D|-----------|------------|----------------------|
A|-----------|------------|----------------------|
E|-----------|------------|----------------------|

|---1-------1-0------0----|----------1----|
|---------3--------3---3--|------3--------|
|-------2-----------------|----2---2------|
|-----0-------------------|--0------------|
|-------------------------|---------------|
|-------------------------|---------------|
Suggest correction
Give kudos to tab author, rate the tab!
1 2 3 4 5
comments
print report bad tab
guest
You may want to rate the tab now too:
select rating
Wanna post a correction for this tab? Suggest correction