Oops, an error
Loading. Please wait.

Marco Es Un Canalla Tab

by Melendi
76 views 1 this week
no commentswrite comment
1 2 3 4 5
3 more votes to show rating
add to favorites
launch autoscroll
font size
0
reset
how to read this tab
guitar tuner
×
Best way to learn
"Marco Es Un Canalla"
Autoscroll
slow
fast
+/-
esc
set tempo
stop
Enhorabuena sam por lo de tu hijo, y gracias por el
"trabajo sucio". Solo he modificado la organizacion
del punteo (intro) y los acordes en quintas.
Si hay alguna duda, mi mail es: carrascal@


       [ch]E5                       [ch]C5[/ch]                      SI5[/ch]
    ---------                 ---------                ---------
    ---------                 ---------                ---------
    ----9----                 ----5----                ----4----
    ----9----                 ----5----                ----4----
    ----7----                 ----3----                ----2----
    ---------                 ---------                ---------


Intro

 [ch]Am    [ch]C    [ch]Em              LAm[/ch]    DO[/ch]    MIm[/ch]
-------------------3-3--3-0------------------------------------
----------------------------3----------------------------------
---2-----0-----0------------------2-----0-----0----------------
--2-2---2-2---2-2----------------2-2---2-2---2-2---------------
-0-----3-----2------------------0-----3-----2------10-9-10-0---
---------------------------------------------------------------

 [ch]A[ch]C    DDO   do(3ºtraste) do       LAm    DO[/ch]    MIm[/ch]
---------------------------------------------------------------
---------------------------------------------------------------
---2-----0-----0-----------0----------2-----0-----0------------
--2-2---2-2---4-4---------2-2--------2-2---2-2---2-2-----------
-0-----3-----5-----------2----------0-----3-----2---2/7--------
---------------------------------------------------------------


[ch]E5                  MI5[/ch]
Mucho cuidado que aunque parezca un mico
[ch]C5                  SI5[/ch]
el se levanta haciendo el ataque del pico
[ch]E5                  MI5[/ch]
pidiendo teta no hay quien se le resista
[ch]C5                  SI5[/ch]
no cabe duda que este guaje va pa artista


[ch]C               RE[/ch]
nació con cresta escupiendo a la matrona
[ch]Em[/ch]              [ch]C[/ch]
pidiendole a la anestesista una litrona
[ch]C               RE[/ch]
ponia los cuernos en las ecografias
[ch]Em              [ch]C[/ch]                   RE[/ch]  (dos golpes en seco)
este me va pedir la paga con diez dias


[ch]C          SOL[/ch]
Marco es un canalla
            [ch]D[/ch]
que duerme de dia
            [ch]C[/ch]
y al caer la noche
               [ch]Em[/ch]
empieza con su melodia
          [ch]C[/ch]
pasa de las nanas
          [ch]G[/ch]
y con disimulo
          [ch]D[/ch]
guiña un ojo
                  [ch]C[/ch]
mirando al CD de extremoduro
          [ch]D[/ch]
y menudo cuadro
              [ch]Em[/ch]
los tres en la cama
           [ch]D                           [ch]C[/ch]  RE[/ch]
Marco y yo colgando de las tetas de la dama


[ch]E5  MI5  [ch]C5[/ch]  SI5[/ch]
Suggest correction
Give kudos to tab author, rate the tab!
1 2 3 4 5
comments
print report bad tab
guest
You may want to rate the tab now too:
select rating
Wanna post a correction for this tab? Suggest correction