Oops, an error
Loading. Please wait.

Marco Es Un Canalla Chords

version 2
version 2

Whole song

29 views 3 this week
no commentswrite comment
1 2 3 4 5
3 more votes to show rating
add to favorites
launch autoscroll
font size
0
reset
transpose
0
reset
display chords
guitar tuner
Autoscroll
slow
fast
+/-
esc
set tempo
stop
Help us to improve Ultimate-Guitar.com Take our survey!
×
intro
   Em   CB  G  B    Em   C   G-si(slide)
--------------3---------------------3----------------------------------
--------------3---------------------3----------------------------------
----0-----0---4-----8------0-----0--4----------------------------------
---2-2---2----5----9-9----2-2---2---5----------------------------------
--2-----3-----5---9------2-----3----5----------------------------------
--------------3---------------------3--3----7----------------------------

después de ésto tocar en la cuarta cuerda desde el tercer
traste hasta el séptimo.

tocar quintas en el séptimo traste así:


   (cejilla n1)              (cejilla n2)             (cejilla n3)
    ----7----                 ----3----                ----2----
    ----9----                 ----5----                ----4----
    ----9----                 ----5----                ----4----
    ---------                 ---------                ---------
    ---------                 ---------                ---------
    ---------                 ---------                ---------

cn1
Mucho cuidado que aunque parezca un micu
cn2
y se levante haciendo el ataque del pitu
cn1
pidiendo teta no hay quien se le resista
cn2                             cn3
no cabe duda que este guaje va pa artista


C               D
nació con cresta escupiendo a la matrona
Em              C
pidiendole a la anestesista una litrona
C               D
ponia los cuernos en las ecografias
Em              C                 C       D
este me va pedir la paga con diez dias


C          G
Marco es un canalla
            D
que duerme de dia
            C
y al caer la noche
               Em
empieza con su melodia
          C
pasa de las nanas
          G
y con disimulo
          D
guiña una ojo
                  C
mirando al CD de extremoduro
          D
y menudo cuadro
              C
los tres en la cama
           D                           C
Marco y yo colgando de las tetas de la dama

cn1            cn2           cn3
Suggest correction
Give kudos to tab author, rate the tab!
1 2 3 4 5
comments
print report bad tab
guest
You may want to rate the tab now too:
select rating
Wanna post a correction for this tab? Suggest correction