Oops, an error
Loading. Please wait.

Marco Es Un Canalla Chords

version 3
version 3

Whole song

by Melendi
44 views 1 this week
no commentswrite comment
1 2 3 4 5
3 more votes to show rating
add to favorites
×
Save as Personal and add changes to this tab that will be seen only by you. Learn more ›
×
You can save this tab as Personal to edit and correct it or add notes. All changes will be seen only by you. Learn more »
save as personal
new!
launch autoscroll
font size
0
reset
transpose
0
reset
display chords
guitar tuner
Autoscroll
slow
fast
+/-
esc
set tempo
stop
Strumming
There is no strumming pattern for this song yet. and get +5 IQ
 mitraste7          E7traste
   ----7----          ---------
   ----7----          ---------
   ----9----          ----9----
   ----9----          ----9----
   ----7----          ----7----
   ----7----          ---------


   E3traste                E2traste
   ---------                ---------
   ---------                ---------
   ----5----                ----4----
   ----5----                ----4----
   ----3----                ----2----
   ---------                ---------


INTRO: mitraste7*

mi7traste
Mucho cuidado que aunque parezca un mico
E3traste              E2traste
el se levanta haciendo el ataque del pico
mi7traste
pidiendo teta no hay quien se le resista
E3traste              E2traste
no cabe duda que este guaje va pa artista

C               D
nació con cresta escupiendo a la matrona
Em              C
pidiendole a la anestesista una litrona
C               D
ponia los cuernos en las ecografias
Em              C                   D
este me va pedir la paga con diez dias

C          G            D
Marco es un canalla que duerme de dia
            C
y al caer la noche
               Em
empieza con su melodia
          C
pasa de las nanas
          G
y con disimulo
          D
guiña una ojo
                  C
mirando al CD de extremoduro
          D
y menudo cuadro
              Em
los tres en la cama
           D                           C D
Marco y yo colgando de las tetas de la dama

MI7traste
Ya tiene un año, lleva media melena
E3traste          E2traste
Y por la calle le guilla el ojo a las nenas
E 7traste
Cuando despierta, pone cara de pillo,
E3traste          E2traste
Y antes del bibi se relame y tararea.

C     G    Em
Salir, Beber, el rollo de siempre,
G                   D                   D
Contar mil historias, hablar con la gente.

C          G
Marco es un canalla
            D
que duerme de dia
            C
y al caer la noche
               Em
empieza con su melodia
          C
pasa de las nanas
          G
y con disimulo
          D
guiña una ojo
                  C
mirando al CD de extremoduro
          D
y menudo cuadro
              Em
los tres en la cama
           D                           C D
Marco y yo colgando de las tetas de la dama

e----8-----7----5----3----7
B----8-----7----5----3----7
G----8-----7----5----3----7
D----10----9----7----5----9
A----10----9----7----5----9
E----8-----7----5----3----7


e----8-----7----5----3----3
B----8-----7----5----3----3
G----8-----7----5----3----3
D----10----9----7----5----5
A----10----9----7----5----5
E----8-----7----5----3----3

e----8-----7----5----3----8-----7----5----3----
B----8-----7----5----3----8-----7----5----3----
G----8-----7----5----3----8-----7----5----3----
D----10----9----7----5----10----9----7----5----
A----10----9----7----5----10----9----7----5----
E----8-----7----5----3----8-----7----5----3----

e----8-----7----3----7----5
B----8-----7----3----7----5
G----8-----7----3----7----5
D----10----9----5----9----7
A----10----9----5----9----7
E----8-----7----3----7----5


C               D
nació con cresta escupiendo a la matrona
Em              C
pidiendole a la anestesista una litrona
C               D
ponia los cuernos en las ecografias
Em              C                   D
este me va pedir la paga con diez días

C          G
Marco es un canalla
            D
que duerme de dia
            C
y al caer la noche
               Em
empieza con su melodia
          C
pasa de las nanas
          G
y con disimulo
          D
guiña una ojo
                  C
mirando al CD de extremoduro
          D
y menudo cuadro
              Em
los tres en la cama
           D                           C
Marco y yo colgando de las tetas de la dama

FINAL: D  Em
Suggest correction
Give kudos to tab author, rate the tab!
1 2 3 4 5
comments
print report bad tab
guest
Wanna post a correction for this tab? Suggest correction