Oops, an error
Loading. Please wait.

Mi Rumbita Pa Tus Pies Bass Tab

55 views 1 this week
no commentswrite comment
1 2 3 4 5
3 more votes to show rating
add to favorites
launch autoscroll
font size
0
reset
guitar tuner
Autoscroll
slow
fast
+/-
esc
set tempo
stop
Help us to improve Ultimate-Guitar.com Take our survey!
×
Re
Siete vidas tiene un gato
La
como una y cuento cien
Sol
alli como de hablar no canso

G---------------------------------|
D---------------------------------|
A-5-555-5(re)---------------------|
E---------5-555-5(la)-3-333-3(sol)|

RE           La
oye te como a ti tambien

G-----------------------|
D-----------------------|
A-5-555-5(re)?----------|
E------------5-555-5(la)|

Re
ya acabao el gran hermano
La
abre un buen champain frances
Sol
que lo mejor de to el programa

G---------------------------------|
D---------------------------------|
A-5-555-5(re)---------------------|
E---------5-555-5(la)-3-333-3(sol)|

Re            La
ay fue la novia de un tal Nes

G-----------------------|
D-----------------------|
A-5-555-5(re)?----------|
E------------5-555-5(la)|

Sol        La
Y ayer vi al sol
Re                Fa#m            Sol
ahi to quemao en la oficina del inem

G--------------------------------------------------|
D------------------------------4-444-4(fa#m)-------|
A----------------------5-555-5(re)-----------------|
E-3-333-3(sol)-5-555-5(la)-------------3-333-3(sol)|

La  Sol
llorando por que alumbra mas tu mirada
La
que su piel

G-------------------------------------|
D-------------------------------------|
A-------------------------------------|
E-5-555-5(la)-3-333-3(sol)-5-555-5(la)|

Re                 La
ya no hay rock americano
        Si m        Fa#m
ya no suena el pop ingles
Sol                 Re
y lo que peta la radio

G---------------------------------------------------------|
D-------------------8-888-8(sim)-4-444-4(fa#m)------------|
A5-555-5(re)-----------------------------------5-555-5(re)|
E--------5-555-5(la)---------------------3-333-3(sol)-----|

Sol          La
mi rumbita pa tus pies

G-------------------------|
D-------------------------|
A-------------------------|
E-3-333-3(sol)-5-555-5(la)|

Re               La
ya nadie roba diarios
  Si m            Fa#m
ya no hay nada que esconder

G---------------------------------------------|
D-------------------8-888-8(sim)-4-444-4(fa#m)|
A5-555-5(re)----------------------------------|
E--------5-555-5(la)--------------------------|

Sol               Re                 La
la navidad la inventap el corte ingles

G-----------------------------|
D-----------------------------|
A----------5-555-5(re)--------|
E-3-333-3(sol)-----5-555-5(la)|

Re
Quien hace un cesto hace un ciento
La
ay dijo un dia un carcamal
Sol
ay que por culpa de estos versos

G---------------------------------|
D---------------------------------|
A-5-555-5(re)---------------------|
E---------5-555-5(la)-3-333-3(sol)|

Re              La
alguien no para de currar

Re
jugabamos de pequeños
La
a imitar verano azul
Sol
yo me pedia siempre a pancho

G---------------------------------|
D---------------------------------|
A-5-555-5(re)---------------------|
E---------5-555-5(la)-3-333-3(sol)|

Re            La
ay a quien te pedías tu

G-----------------------|
D-----------------------|
A-5-555-5(re)?----------|
E------------5-555-5(la)|

Sol        La
Y ayer vi al sol
Re                Fa#m            Sol
ahi to quemao en la oficina del inem

G--------------------------------------------------|
D------------------------------4-444-4(fa#m)-------|
A----------------------5-555-5(re)-----------------|
E-3-333-3(sol)-5-555-5(la)-------------3-333-3(sol)|

La  Sol
llorando por que alumbra mas tu mirada
La
que su piel

G-------------------------------------|
D-------------------------------------|
A-------------------------------------|
E-5-555-5(la)-3-333-3(sol)-5-555-5(la)|

Re                 La
ya no hay rock americano
        Si m        Fa#m
ya no suena el pop ingles
Sol                 Re
y lo que peta la radio

G---------------------------------------------------------|
D-------------------8-888-8(sim)-4-444-4(fa#m)------------|
A5-555-5(re)-----------------------------------5-555-5(re)|
E--------5-555-5(la)---------------------3-333-3(sol)-----|

Sol          La
mi rumbita pa tus pies

G-------------------------|
D-------------------------|
A-------------------------|
E-3-333-3(sol)-5-555-5(la)|

Re               La
ya nadie roba diarios
  Si m            Fa#m
ya no hay nada que esconder

G---------------------------------------------|
D-------------------8-888-8(sim)-4-444-4(fa#m)|
A5-555-5(re)----------------------------------|
E--------5-555-5(la)--------------------------|

Sol               Re                 La
la navidad la inventap el corte ingles

G-----------------------------|
D-----------------------------|
A----------5-555-5(re)--------|
E-3-333-3(sol)-----5-555-5(la)|

(punteo)

Sol        La
Y ayer vi al sol
Re                Fa#m            Sol
ahi to quemao en la oficina del inem

G--------------------------------------------------|
D------------------------------4-444-4(fa#m)-------|
A----------------------5-555-5(re)-----------------|
E-3-333-3(sol)-5-555-5(la)-------------3-333-3(sol)|

La  Sol
llorando por que alumbra mas tu mirada
La
que su piel

G-------------------------------------|
D-------------------------------------|
A-------------------------------------|
E-5-555-5(la)-3-333-3(sol)-5-555-5(la)|

Sin música,sólo palmas:

ya no hay rock americano
ya no suena el pop ingles
y lo que peta la radio

Sol          La
mi rumbita pa tus pies

G-----------------------------|
D-----------------------------|
A-----------------------------|
E-3(sol)slide5(la)-5-555-5(la)|

Re               La
ya nadie roba diarios
  Si m            Fa#m
ya no hay nada que esconder

G---------------------------------------------|
D-------------------8-888-8(sim)-4-444-4(fa#m)|
A5-555-5(re)----------------------------------|
E--------5-555-5(la)--------------------------|

Sol               Re                 La
la navidad la inventap el corte ingles

G-----------------------------|
D-----------------------------|
A----------5-555-5(re)--------|
E-3-333-3(sol)-----5-555-5(la)|

Re                 La
ya no hay rock americano
        Si m        Fa#m
ya no suena el pop ingles
Sol                 Re
y lo que peta la radio

G---------------------------------------------------------|
D-------------------8-888-8(sim)-4-444-4(fa#m)------------|
A5-555-5(re)-----------------------------------5-555-5(re)|
E--------5-555-5(la)---------------------3-333-3(sol)-----|

Sol          La
mi rumbita pa tus pies

G-------------------------|
D-------------------------|
A-------------------------|
E-3-333-3(sol)-5-555-5(la)|

Re               La
ya nadie roba diarios
  Si m            Fa#m
ya no hay nada que esconder

G---------------------------------------------|
D-------------------8-888-8(sim)-4-444-4(fa#m)|
A5-555-5(re)----------------------------------|
E--------5-555-5(la)--------------------------|

Sol               Re                 La
la navidad la inventap el corte ingles

G-----------------------------|
D-----------------------------|
A----------5-555-5(re)--------|
E-3-333-3(sol)-----5-555-5(la)|

Teneis que ajustar la cantidad de golpes para cada
nota, ya que no estan ajustadas y además eso va a
gusto de cada uno.

Disfrutadla con salud.
Suggest correction
Give kudos to tab author, rate the tab!
1 2 3 4 5
comments
print report bad tab
guest
You may want to rate the tab now too:
select rating
Wanna post a correction for this tab? Suggest correction