Oops, an error
Loading. Please wait.

Porque Tu No Eres Un Coche Tab

by Melendi
73 views 1 this week
no commentswrite comment
1 2 3 4 5
3 more votes to show rating
add to favorites
×
Save as Personal and add changes to this tab that will be seen only by you. Learn more ›
×
You can save this tab as Personal to edit and correct it or add notes. All changes will be seen only by you. Learn more »
save as personal
new!
launch autoscroll
font size
0
reset
how to read this tab
guitar tuner
Autoscroll
slow
fast
+/-
esc
set tempo
stop
  Tras haber tenido la esperanza durante años de que alguien se molestara en
transcribir esta canción(la mejor de melendi, sin duda)y subirla a esta página,
y haber sido frustrada incontables veces me he decidido por transcribirla yo
mismo (lo que implica que haya errores).


                    [ch]F*                SOL7[/ch]
e----------------------------------------------------------
b---------------------------8--6--5-6-----------------3----
g--------------------------5--5--5------------5--4---5-----
d-------------------------7--7--7------------3--3---3------
a-----------------------5-------------------5--5---5-------
E-----------------------------------------3----------------
¿Cuántas noches te querré?        ¿Cuántos lunes viviré?


D[ch]C7              Do7(cejilla) DO7*[/ch]
e-----------------------------------------------
b-----6--5--3-5--------5------------1-----------
g----5--5--5----------3-3----------3--3---------
d---5--5--5----------5---5--------2----2--------
a-3-----------------3----------3----------------
E-----------------------------------------------
 ¿Cuántas lunas,     con mis manos tocaré?

[ch]F*[/ch]
e---------------------------------
b-----8--6--5-6-------------------
g----5--5--5----------------------
d---7--7--7-----------------------
a-5-------------------------------
E---------------------------------
¿Cuántos lunares hay en tu piel?


[ch]G7     [ch]F7[/ch]     SOL7[/ch]                      [ch]E[/ch]
e------------------------------------------------------------------------
b-----3------1--------3--6------3-------3----------0---------------------
g---4---4------2--------4-----4---4----4-4------1/2--1-------------------
d--3-----3------1------------3-----3--3---3----2-------------------------
a-5-------------------------5--------5--------2--------------------------
E--------------------------------------------0----------------------------
  ¿Cuántas miradas me hicieron falta para ver...


              [ch]F*                 SOL7[/ch]
e--------------------------------------------------------
b-----------------8--6--5-6-------------------3----------
g----------------5--5--5---------------5--4--5-----------
d---------------7--7--7---------------3--3--3------------
a-------------5----------------------5--5--5-------------
E----------------------------------3---------------------
 Que sin tu olor,         el respirar,       se hace dolor


[ch]C                          DO7            DO7*[/ch]
e---------------------------------------------------
b-----6--5--3-5------------------5-------------1----
g----5--5--5--------------------3-3-----------3--3--
d---5--5--5--------------------5---5---------2----2-
a-3---------------------------3-----------3---------
E---------------------------------------------------
         Ay que cosa tan rara    y complicada


           [ch]F*[/ch]
e-------------------------------------------------------
b----------------8--6--5-6------------------------------
g---------------5--5--5---------------------------------
d--------------7--7--7----------------------------------
a------------5------------------------------------------
E-------------------------------------------------------
que es la movida esta del amor cuando lo tienes te sobra


[ch]G7                          [ch]F7[/ch] SOL7[/ch]    [ch]E[/ch]
e--------------------------------------------------
b-------------------------3----1---3--6---------0--
g-----4---5-----4-5-----4--4----2---4--------1/2--1
d----3--3----3---------3----3----1----------2------
a---5----5-----5------5--------------------2-------
E-3---------------------------------------0--------
 y cuando te falta ya       no sale el sol


          [ch]F      SOL[/ch]                       [ch]C[/ch]
Y cada noche, te busco a la salida del trabajo


    [ch]C7     DO7*               FA*[/ch]
Confío en que te baste con mi abrazo


     [ch]F[/ch]                     [ch]E[/ch]
Pues poco puedo darte de parné


       [ch]Am[/ch]                  [ch]Dm[/ch]
Y cada duda,  cada reproche


                  [ch]F7[/ch]
Me lo tengo merecido


                        [ch]E[/ch]
No solo el pagar recibos no


                          [ch]Am[/ch]
Porque tú no eres un coche

Esta parte se toca igual que la primera:

¿Cuántos vicios venceré?,
¿Cuánto tiempo,en vencerlos tardaré?,
¿cuántos besos,en silencio robaré?
lo complicado que puede ser,
buscarle siempre la explicación,al corazón de una mujer.
Que sin tu amor,mi caminar,muere en el bar,
ay que cosa tan rara
y complicada es la movida esta del azar no gana siempre
quien juega mucho y corta siempre,para barajar

          [ch]F      SOL[/ch]                       [ch]C[/ch]
Y cada noche, te busco a la salida del trabajo


    [ch]C7     DO7*               FA*[/ch]
Confío en que te baste con mi abrazo


     [ch]F[/ch]                     [ch]E[/ch]
Pues poco puedo darte de parné


       [ch]Am[/ch]                  [ch]Dm[/ch]
Y cada duda,  cada reproche


                  [ch]F7[/ch]
Me lo tengo merecido


                        [ch]E[/ch]
No solo el pagar recibos no


                          [ch]Am[/ch]
Porque tú no eres un coche (X2)


[ch]C7*   FA*[/ch]
-X------5-
-1------6-
-3------5-
-2------7-
-3------5-
-X------X-
Suggest correction
Give kudos to tab author, rate the tab!
1 2 3 4 5
comments
print report bad tab
guest
Wanna post a correction for this tab? Suggest correction