Oops, an error
Loading. Please wait.

Followed The Waves Bass Tab

version 1
version 1

Whole song

Interactive

442 views 3 this week
no commentswrite comment
1 2 3 4 5
please rate
add to favorites
launch autoscroll
font size
0
reset
guitar tuner
Tab Pro tools
  • play this tab
  • loop segment
  • change instrument
  • show fretboard
  • metronome
Autoscroll
slow
fast
+/-
esc
set tempo
stop
Contributor
Difficulty
Tuning
intermediate
D A D G B E
INTRO
G--------14---14---14----1414141415------------------------------------|
D-----0-----0----0----0------------------------------------------------|
A----------------------------------------------------------------------|
D----------------------------------------------------------------------|

Then at 0:24
G-----14-14-14-15------------------------------------------------------|
D-----0--0--0--0-------------------------------------------------------|
A----------------------------------------------------------------------|
D----------------------------------------------------------------------|

(0:30) (0:37)
G----------------------------------------------------------------------|
D----------------------------------------------------------------------|
A----------------------------------------------------------------------|
D--/12-12-12-12-13-12-12-12-13-12-12-12\0-0-0-0-0-0-0-0-1-0-0-0-0------|

Verse
G---------------------------------------------------------------------|
D---------------------------------------------------------------------|
A---------------------------------------------------------------------|
D---0-0-0-0-0-0-0-0-1-0-0-0-0-----------------------------------------|

Pre-chorus (Can't you you see....)
G----------------------------------------------------------------------|
D----------------------------------------------------------------------|
A----------------------------------------------------------------------|
D---12-12-12*-12-13-12-12-12-12----------------------------------------|

Chorus
G---------------------------------------------------------------------|
D---------------------------------------------------------------------|
A---------------------------------------------------------------------|
D---7-7/8-8-8\0--7-7/8-8-8\3--7-7/8-8-8\3--3-3/5-5/7-0(-)-------------|
(1:41) (Slide into verse 2)
G---------------------------------------------------------------------|
D---------------------------------------------------------------------|
A---------------------------------------------------------------------|
D--/12-12-12-12-13-12-12-12-13-12-12-12\0-0-0-0-0-0-0-0-1-0-0-0-0-----|
(2:01) (Break my heart...)
G-------------------------------------------------------------------------------------------------|
D-------------------------------------------------------------------------------------------------|
A-------------------------------------------------------------------------------------------------|
D--12-12-12-12-13-12-12-12-12-12--12-12-12-12-13-12-12-12-12-12--5/12-12-12-12-13-12-12-12-12-12\0|

(2:22) (Slide into chorus)
G---------------------------------------------------------------------|
D---------------------------------------------------------------------|
A---------------------------------------------------------------------|
D--1-0-0-1-0-0-1-0-/--------------------------------------------------|
(3:00) (3:07) (3:14)

G---------------------------------------------------------------------|
D---------------------------------------------------------------------|
A---------------------------------------------------------------------|
D--1-0(-)------3-0(-)-------1-0(-)------------------------------------|

(3:25) Played until 3:38
G---------------------------------------------------------------------|
D---------------------------------------------------------------------|
A---------------------------------------------------------------------|
D--0-12-13-12---------------------------------------------------------|

Then continue with until 4:04
G---------------------------------------------------------------------|
D---------------------------------------------------------------------|
A---------------------------------------------------------------------|
D--0-0-0-0-0-0-0-1-0-0-0-0-0-0-0-0------------------------------------|

At 4:04
G---------------------------------------------------------------------|
D---------------------------------------------------------------------|
A---------------------------------------------------------------------|
D--12-12-12-12-13-12-12-12-12-12--12-12-12-12-13-12-12-12-12-12-------|

Continue into Chorus and after that as played at 3:00 Legend: / slide * hammer 
(cut off) (-) Let ring
comments
We did not receive enough feedback on this tab! Please rate:
print report bad tab
1 2 3 4 5
I want to post or [tab]
guest
You may want to rate the tab now too:
select rating
Please do not post tabs as comments. Select "correction" instead!