Oops, an error
Loading. Please wait.

Come To My Window tab

version 1
version 1

Whole song

Interactive

265 views 3 this week
no commentswrite comment
1 2 3 4 5
3 more votes to show rating
add to favorites
×
Save as Personal and add changes to this tab that will be seen only by you. Learn more ›
×
You can save this tab as Personal to edit and correct it or add notes. All changes will be seen only by you. Learn more »
launch autoscroll
font size
0
reset
how to read this tab
guitar tuner
edit
Autoscroll
slow
fast
+/-
esc
set tempo
stop
Author
Difficulty
COME TO MY WINDOW

As recorded by Melissa Etheridge
(From the 1993 Album YES I AM)

Words and Music by Melissa Etheridge

Transcribed by Slowhand


Gtr I (E A D G B E) - 'Melissa Etheridge - 12-string Acoustic Guitar'
Gtr II (E A D G B E) - 'Waddy Wachtel - Electric Guitar'
Gtr III (E A D G B E) - 'Melissa Etheridge - Electric Guitar'


 Intro
  Q=78         Faster Q=94
  N.C.                Cadd9        G/B
 4/4          2/4    4/4
  Gtr I (12-string Ac. Gtr.)
  Wx6          W      E  S S E  S   S  +S  S S S E S S
|------------|------|-3--3-3-3--3---3--(3)-3-3-3-3-3-3-|
|------------|------|-3--3-3-3--3---3--(3)-3-3-3-3-3-3-|
|------------|------|-0--0-0-0--0---0--(0)-0-0-0-0-0-0-|
|------------|------|-2--2-2-2--2---0--(0)-0-0-0-0-0-0-|
|------------|------|-3--3-3-3--3---2--(2)-2-2-2-2-2-2-|
|------------|------|----------------------------------|
|
| Gtr II (El. Gtr. w/ light dist.)
| Wx6          W      Q.       +S  +S   H
|------------|------|----------------------------------|
|------------|------|----------------------------------|
|------------|------|-5--------(5)-(5)s=7--------------|
|------------|------|----------------------------------|
|------------|------|----------------------------------|
|------------|------|----------------------------------|


  D           Dsus2         D Dsus2 Cadd9        G/B
   E  S S E S S +S  S S S S S S S   E  S S E  S   S  +S  S S S E S S
|--2--2-2-2-2-0-(0)-0-0-0-0-2-0-0-|-3--3-3-3--3---3--(3)-3-3-3-3-3-3--|
|--3--3-3-3-3-3-(3)-3-3-3-3-3-3-3-|-3--3-3-3--3---3--(3)-3-3-3-3-3-3--|
|--2--2-2-2-2-2-(2)-2-2-2-2-2-2-2-|-0--0-0-0--0---0--(0)-0-0-0-0-0-0--|
|--0--0-0-0-0-0-(0)-0-0-0-0-0-0-0-|-2--2-2-2--2---0--(0)-0-0-0-0-0-0--|
|---------------------------------|-3--3-3-3--3---2--(2)-2-2-2-2-2-2--|
|---------------------------------|-----------------------------------|
|
| +W                                Q.       +S  +S   H
|---------------------------------|-----------------------------------|
|---------------------------------|-----------------------------------|
|-(7)-----------------------------|-5--------(5)-(5)s=7---------------|
|---------------------------------|-----------------------------------|
|---------------------------------|-----------------------------------|
|---------------------------------|-----------------------------------|


  D           Dsus2         D Dsus2 Cadd9     G/B
   E  S S E S S +S  S S S S S S S   E S S E S S +S  S S S E E
|--2--2-2-2-2-0-(0)-0-0-0-0-2-0-0-|-3-3-3-3-3-3-(3)-3-3-3-3-3-|
|--3--3-3-3-3-3-(3)-3-3-3-3-3-3-3-|-3-3-3-3-3-3-(3)-3-3-3-3-3-|
|--2--2-2-2-2-2-(2)-2-2-2-2-2-2-2-|-0-0-0-0-0-0-(0)-0-0-0-0-0-|
|--0--0-0-0-0-0-(0)-0-0-0-0-0-0-0-|-2-2-2-2-2-0-(0)-0-0-0-0-0-|
|---------------------------------|-3-3-3-3-3-2-(2)-2-2-2-2-2-|
|---------------------------------|---------------------------|
|
|                                                ~~~
| +W                                H            H
|---------------------------------|---------------------------|
|---------------------------------|---------------------------|
|-(7)-----------------------------|-5------------4------------|
|---------------------------------|---------------------------|
|---------------------------------|---------------------------|
|---------------------------------|---------------------------|


  D          Dsus2         D Dsus2 Cadd9     G/B
   E S S E S S +S  S S S S S S S   E S S E S S +S  S S S E S S
|--2-2-2-2-2-0-(0)-0-0-0-0-2-0-0-|-3-3-3-3-3-3-(3)-3-3-3-3-3-3--|
|--3-3-3-3-3-3-(3)-3-3-3-3-3-3-3-|-3-3-3-3-3-3-(3)-3-3-3-3-3-3--|
|--2-2-2-2-2-2-(2)-2-2-2-2-2-2-2-|-0-0-0-0-0-0-(0)-0-0-0-0-0-0--|
|--0-0-0-0-0-0-(0)-0-0-0-0-0-0-0-|-2-2-2-2-2-0-(0)-0-0-0-0-0-0--|
|--------------------------------|-3-3-3-3-3-2-(2)-2-2-2-2-2-2--|
|--------------------------------|------------------------------|
|
|  W                               H            H
|--------------------------------|------------------------------|
|--------------------------------|--------------8---------------|
|-/7-----------------------------|-5----------------------------|
|--------------------------------|------------------------------|
|--------------------------------|------------------------------|
|--------------------------------|------------------------------|


                                  1st Verse
  D                       Dsus2    Cadd9     G/B
  E S S E S S +S  S S S S S S S    E S S E S S +S  S S S E S S
|-2-2-2-2-2-2-(2)-2-2-2-2-0-0-0-||-3-3-3-3-3-3-(3)-3-3-3-3-3-3--|
|-3-3-3-3-3-3-(3)-3-3-3-3-3-3-3-||-3-3-3-3-3-3-(3)-3-3-3-3-3-3--|
|-2-2-2-2-2-2-(2)-2-2-2-2-2-2-2-||-0-0-0-0-0-0-(0)-0-0-0-0-0-0--|
|-0-0-0-0-0-0-(0)-0-0-0-0-0-0-0-||-2-2-2-2-2-0-(0)-0-0-0-0-0-0--|
|-------------------------------||-3-3-3-3-3-2-(2)-2-2-2-2-2-2--|
|-------------------------------||------------------------------|
|
| W                                W
|-------------------------------||------------------------------|
|-------------------------------||------------------------------|
|-7-----------------------------||------------------------------|
|-------------------------------||------------------------------|
|-------------------------------||------------------------------|
|-------------------------------||------------------------------|


  D         Dsus2         D Dsus2 Cadd9     G/B
  E S S E S S +S  S S S S S S S   E S S E S S +S  S S S E S S
|-2-2-2-2-2-0-(0)-0-0-0-0-2-0-0-|-3-3-3-3-3-3-(3)-3-3-3-3-3-3--|
|-3-3-3-3-3-3-(3)-3-3-3-3-3-3-3-|-3-3-3-3-3-3-(3)-3-3-3-3-3-3--|
|-2-2-2-2-2-2-(2)-2-2-2-2-2-2-2-|-0-0-0-0-0-0-(0)-0-0-0-0-0-0--|
|-0-0-0-0-0-0-(0)-0-0-0-0-0-0-0-|-2-2-2-2-2-0-(0)-0-0-0-0-0-0--|
|-------------------------------|-3-3-3-3-3-2-(2)-2-2-2-2-2-2--|
|-------------------------------|------------------------------|


  D         Dsus2         D Dsus2 Cadd9     G/B
  E S S E S S +S  S S S S S S S   E S S E S S +S  S S S E S S
|-2-2-2-2-2-0-(0)-0-0-0-0-2-0-0-|-3-3-3-3-3-3-(3)-3-3-3-3-3-3--|
|-3-3-3-3-3-3-(3)-3-3-3-3-3-3-3-|-3-3-3-3-3-3-(3)-3-3-3-3-3-3--|
|-2-2-2-2-2-2-(2)-2-2-2-2-2-2-2-|-0-0-0-0-0-0-(0)-0-0-0-0-0-0--|
|-0-0-0-0-0-0-(0)-0-0-0-0-0-0-0-|-2-2-2-2-2-0-(0)-0-0-0-0-0-0--|
|-------------------------------|-3-3-3-3-3-2-(2)-2-2-2-2-2-2--|
|-------------------------------|------------------------------|


  D         Dsus2         D Dsus2 Cadd9     G/B
  E S S E S S +S  S S S S S S S   E S S E S S +S  S S S E S S
|-2-2-2-2-2-0-(0)-0-0-0-0-2-0-0-|-3-3-3-3-3-3-(3)-3-3-3-3-3-3-|
|-3-3-3-3-3-3-(3)-3-3-3-3-3-3-3-|-3-3-3-3-3-3-(3)-3-3-3-3-3-3-|
|-2-2-2-2-2-2-(2)-2-2-2-2-2-2-2-|-0-0-0-0-0-0-(0)-0-0-0-0-0-0-|
|-0-0-0-0-0-0-(0)-0-0-0-0-0-0-0-|-2-2-2-2-2-0-(0)-0-0-0-0-0-0-|
|-------------------------------|-3-3-3-3-3-2-(2)-2-2-2-2-2-2-|
|-------------------------------|-----------------------------|


  D         Dsus2         D Dsus2
  E S S E S S +S  S S S S S S S
|-2-2-2-2-2-0-(0)-0-0-0-0-2-0-0--||
|-3-3-3-3-3-3-(3)-3-3-3-3-3-3-3--||
|-2-2-2-2-2-2-(2)-2-2-2-2-2-2-2--||
|-0-0-0-0-0-0-(0)-0-0-0-0-0-0-0--||
|--------------------------------||
|--------------------------------||


 Pre-Chorus
  $
  Em     Cadd9             D               Dsus4   D
  Q  E S S S S S S E S S   E S S E S S +S  S S S S S S S
|-0--0-0-3-3-3-3-3-3-3-3-|-2-2-2-2-2-2-(2)-3-3-3-3-2-2-2-|
|-0--0-0-3-3-3-3-3-3-3-3-|-3-3-3-3-3-3-(3)-3-3-3-3-3-3-3-|
|-0--0-0-0-0-0-0-0-0-0-0-|-2-2-2-2-2-2-(2)-2-2-2-2-2-2-2-|
|-2--2-2-2-2-2-2-2-2-2-2-|-0-0-0-0-0-0-(0)-0-0-0-0-0-0-0-|
|-2--2-2-3-3-3-3-3-3-3-3-|-------------------------------|
|-0--0-0-----------------|-------------------------------|
|
| Gtr II
| H        H               W
|------------------------|-------------------------------|
|------------------------|-------------------------------|
|-4--------5-------------|-7-----------------------------|
|------------------------|-------------------------------|
|-2--------3-------------|-5-----------------------------|
|------------------------|-------------------------------|


  Em     Cadd9               D    DsDs2       Dsus2
  Q  E S S +S  S S S E S S    E E E S S E E S S S S
|-0--0-0-3-(3)-3-3-3-3-3-3-|--2-2-0-2-2-2-2-2-0-0-0-||
|-0--0-0-3-(3)-3-3-3-3-3-3-|--3-3-3-3-3-3-3-3-3-3-3-||
|-0--0-0-0-(0)-0-0-0-0-0-0-|--2-2-2-2-2-2-2-2-2-2-2-||
|-2--2-2-2-(2)-2-2-2-2-2-2-|--0-0-0-0-0-0-0-0-0-0-0-||
|-2--2-2-3-(3)-3-3-3-3-3-3-|------------------------||
|-0--0-0-------------------|------------------------||
|
| H         H                 W
|--------------------------|------------------------||
|--------------------------|------------------------||
|-9--------12--------------|-14---------------------||
|--------------------------|------------------------||
|-7--------10--------------|-12---------------------||
|--------------------------|------------------------||


 Chorus
  G                 Cadd9               A7sus4            D     Dsus2 D Dsus2
  E   S S  S  S S S E   S S  S  S S S   E   S S  S  S S S S E   S +S  S S S
|-3---3-3--3--3-3-3-3---3-3--3--3-3-3-|-3---3-3--3--3-3-3-2-2---0-(0)-2-0-0-|
|-3---3-3--3--3-3-3-3---3-3--3--3-3-3-|-3---3-3--3--3-3-3-3-3---3-(3)-3-3-3-|
|-0---0-0--0--0-0-0-0---0-0--0--0-0-0-|-0---0-0--0--0-0-0-2-2---2-(2)-2-2-2-|
|-0---0-0--0--0-0-0-2---2-2--2--2-2-2-|-2---2-2--2--2-2-2-0-0---0-(0)-0-0-0-|
|-2---2-2--2--2-2-2-3---3-3--3--3-3-3-|-0---0-0--0--0-0-0-------------------|
|-3---3-3--3--3-3-3-------------------|-------------------------------------|
|
| Gtr III (Clean El. Gtr.)
| S S S S +S  S E   S S S S +S  S E     S S S S +S  S E   S S S S +S  S E
|-3-----------3-----3-----------3-----|-3-----------3-----2-----0-(0)-2-----|
|---3---3-(3)---------3---3-(3)-------|---3---3-(3)---------3---------------|
|-----0---------0-------0---------0---|-----0---------0-------2---------2---|
|-------------------------------------|-------------------------------------|
|-------------------------------------|-------------------------------------|
|-------------------------------------|-------------------------------------|


  G                 Cadd9               A7sus4            D     Dsus2 D Dsus2
  E   S S  S  S S S E   S S  S  S S S   E   S S  S  S S S S E   S +S  S S S
|-3---3-3--3--3-3-3-3---3-3--3--3-3-3-|-3---3-3--3--3-3-3-2-2---0-(0)-2-0-0-|
|-3---3-3--3--3-3-3-3---3-3--3--3-3-3-|-3---3-3--3--3-3-3-3-3---3-(3)-3-3-3-|
|-0---0-0--0--0-0-0-0---0-0--0--0-0-0-|-0---0-0--0--0-0-0-2-2---2-(2)-2-2-2-|
|-0---0-0--0--0-0-0-2---2-2--2--2-2-2-|-2---2-2--2--2-2-2-0-0---0-(0)-0-0-0-|
|-2---2-2--2--2-2-2-3---3-3--3--3-3-3-|-0---0-0--0--0-0-0-------------------|
|-3---3-3--3--3-3-3-------------------|-------------------------------------|
|
| S S S S +S  S E   S S S S +S  S E     S S S S +S  S E   S S S S +S  S E
|-3-----------3-----3-----------3-----|-3-----------3-----2-----0-(0)-2-----|
|---3---3-(3)---------3---3-(3)-------|---3---3-(3)---------3---------------|
|-----0---------0-------0---------0---|-----0---------0-------2---------2---|
|-------------------------------------|-------------------------------------|
|-------------------------------------|-------------------------------------|
|-------------------------------------|-------------------------------------|


  G                 Cadd9               A7sus4            G/B   Dsus2 D Dsus2
  E   S S  S  S S S E   S S  S  S S S   E   S S  S  S S S S E   S +S  S S S
|-3---3-3--3--3-3-3-3---3-3--3--3-3-3-|-3---3-3--3--3-3-3-2-2---0-(0)-2-0-0-|
|-3---3-3--3--3-3-3-3---3-3--3--3-3-3-|-3---3-3--3--3-3-3-3-3---3-(3)-3-3-3-|
|-0---0-0--0--0-0-0-0---0-0--0--0-0-0-|-0---0-0--0--0-0-0-2-2---2-(2)-2-2-2-|
|-0---0-0--0--0-0-0-2---2-2--2--2-2-2-|-2---2-2--2--2-2-2-0-0---0-(0)-0-0-0-|
|-2---2-2--2--2-2-2-3---3-3--3--3-3-3-|-0---0-0--0--0-0-0-------------------|
|-3---3-3--3--3-3-3-------------------|-------------------------------------|
|
| S S S S +S  S E   S S S S +S  S E     S S S S +S  S E   S S S S +S  S E
|-3-----------3-----3-----------3-----|-3-----------3-----2-----0-(0)-2-----|
|---3---3-(3)---------3---3-(3)-------|---3---3-(3)---------3---------------|
|-----0---------0-------0---------0---|-----0---------0-------2---------2---|
|-------------------------------------|-------------------------------------|
|-------------------------------------|-------------------------------------|
|-------------------------------------|-------------------------------------|


                               To Coda
  G                 Cadd9                A7sus4            D     Dsus2 D Dsus2
  E   S S  S  S S S E   S S  S  S S S    E   S S  S  S S S S E   S +S  S S S
|-3---3-3--3--3-3-3-3---3-3--3--3-3-3--|-3---3-3--3--3-3-3-2-2---0-(0)-2-0-0--||
|-3---3-3--3--3-3-3-3---3-3--3--3-3-3--|-3---3-3--3--3-3-3-3-3---3-(3)-3-3-3--||
|-0---0-0--0--0-0-0-0---0-0--0--0-0-0--|-0---0-0--0--0-0-0-2-2---2-(2)-2-2-2--||
|-0---0-0--0--0-0-0-2---2-2--2--2-2-2--|-2---2-2--2--2-2-2-0-0---0-(0)-0-0-0--||
|-2---2-2--2--2-2-2-3---3-3--3--3-3-3--|-0---0-0--0--0-0-0--------------------||
|-3---3-3--3--3-3-3--------------------|--------------------------------------||
|
| S S S S +S  S E   S S S S +S  S E      S S S S +S  S E   S S S S +S  S E
|-3-----------3-----3-----------3------|-3-----------3-----2-----0-(0)-2------||
|---3---3-(3)---------3---3-(3)--------|---3---3-(3)---------3----------------||
|-----0---------0-------0---------0----|-----0---------0-------2---------2----||
|--------------------------------------|--------------------------------------||
|--------------------------------------|--------------------------------------||
|--------------------------------------|--------------------------------------||


 2nd Verse
  Cadd9     G/B                 D         Dsus2         D Dsus2
  E S S E S S +S  S S S E S S   E S S E S S +S  S S S S S S S
|-3-3-3-3-3-3-(3)-3-3-3-3-3-3-|-2-2-2-2-2-0-(0)-0-0-0-0-2-0-0--|
|-3-3-3-3-3-3-(3)-3-3-3-3-3-3-|-3-3-3-3-3-3-(3)-3-3-3-3-3-3-3--|
|-0-0-0-0-0-0-(0)-0-0-0-0-0-0-|-2-2-2-2-2-2-(2)-2-2-2-2-2-2-2--|
|-2-2-2-2-2-0-(0)-0-0-0-0-0-0-|-0-0-0-0-0-0-(0)-0-0-0-0-0-0-0--|
|-3-3-3-3-3-2-(2)-2-2-2-2-2-2-|--------------------------------|
|-----------------------------|--------------------------------|


  Cadd9     G/B                 D         Dsus2         D Dsus2
  E S S E S S +S  S S S E S S   E S S E S S +S  S S S S S S S
|-3-3-3-3-3-3-(3)-3-3-3-3-3-3-|-2-2-2-2-2-0-(0)-0-0-0-0-2-0-0--|
|-3-3-3-3-3-3-(3)-3-3-3-3-3-3-|-3-3-3-3-3-3-(3)-3-3-3-3-3-3-3--|
|-0-0-0-0-0-0-(0)-0-0-0-0-0-0-|-2-2-2-2-2-2-(2)-2-2-2-2-2-2-2--|
|-2-2-2-2-2-0-(0)-0-0-0-0-0-0-|-0-0-0-0-0-0-(0)-0-0-0-0-0-0-0--|
|-3-3-3-3-3-2-(2)-2-2-2-2-2-2-|--------------------------------|
|-----------------------------|--------------------------------|
|
| Gtr II
| W                             H            Q        Q
|-----------------------------|--------------------------------|
|-----------------------------|--------------------------------|
|-----------------------------|-----------------------7s=======|
|-----------------------------|--------------------------------|
|-----------------------------|--------------------------------|
|-----------------------------|--------------------------------|


  Cadd9     G/B                 D         Dsus2         D Dsus2
  E S S E S S +S  S S S E S S   E S S E S S +S  S S S S S S S
|-3-3-3-3-3-3-(3)-3-3-3-3-3-3-|-2-2-2-2-2-0-(0)-0-0-0-0-2-0-0--|
|-3-3-3-3-3-3-(3)-3-3-3-3-3-3-|-3-3-3-3-3-3-(3)-3-3-3-3-3-3-3--|
|-0-0-0-0-0-0-(0)-0-0-0-0-0-0-|-2-2-2-2-2-2-(2)-2-2-2-2-2-2-2--|
|-2-2-2-2-2-0-(0)-0-0-0-0-0-0-|-0-0-0-0-0-0-(0)-0-0-0-0-0-0-0--|
|-3-3-3-3-3-2-(2)-2-2-2-2-2-2-|--------------------------------|
|-----------------------------|--------------------------------|
|
| H            H                W
|-----------------------------|--------------------------------|
|-----------------------------|--------------------------------|
|-5------------4--------------|-7------------------------------|
|-----------------------------|--------------------------------|
|-----------------------------|--------------------------------|
|-----------------------------|--------------------------------|


                                                  D.S. al Coda
  Cadd9     G/B                 D         Dsus2         D Dsus2
  E S S E S S +S  S S S E S S   E S S E S S +S  S S S S S S S
|-3-3-3-3-3-3-(3)-3-3-3-3-3-3-|-2-2-2-2-2-0-(0)-0-0-0-0-2-0-0--||
|-3-3-3-3-3-3-(3)-3-3-3-3-3-3-|-3-3-3-3-3-3-(3)-3-3-3-3-3-3-3--||
|-0-0-0-0-0-0-(0)-0-0-0-0-0-0-|-2-2-2-2-2-2-(2)-2-2-2-2-2-2-2--||
|-2-2-2-2-2-0-(0)-0-0-0-0-0-0-|-0-0-0-0-0-0-(0)-0-0-0-0-0-0-0--||
|-3-3-3-3-3-2-(2)-2-2-2-2-2-2-|--------------------------------||
|-----------------------------|--------------------------------||
|
| H            H                W
|-----------------------------|--------------------------------||
|-----------------------------|--------------------------------||
|-5------------7--------------|-7------------------------------||
|-----------------------------|--------------------------------||
|-----------------------------|--------------------------------||
|-----------------------------|--------------------------------||


                                        Bridge
  &
  A7sus4            D     Dsus2 D Dsus2  Em
  E   S S  S  S S S S E   S +S  S S S     E  S S E S S S S S S S S S S
|-3---3-3--3--3-3-3-2-2---0-(0)-2-0-0-||--0--0-0-0-0-0-0-0-0-0-0-0-0-0-|
|-3---3-3--3--3-3-3-3-3---3-(3)-3-3-3-||--0--0-0-0-0-0-0-0-0-0-0-0-0-0-|
|-0---0-0--0--0-0-0-2-2---2-(2)-2-2-2-||--0--0-0-0-0-0-0-0-0-0-0-0-0-0-|
|-2---2-2--2--2-2-2-0-0---0-(0)-0-0-0-||--2--2-2-2-2-2-2-2-2-2-2-2-2-2-|
|-0---0-0--0--0-0-0-------------------||--2--2-2-2-2-2-2-2-2-2-2-2-2-2-|
|-------------------------------------||--0--0-0-0-0-0-0-0-0-0-0-0-0-0-|
|
| Gtr III                           Gtr II
| S S S S +S  S E   S S S S +S  S S S    +W
|-3-----------3-----2-----0-(0)-2-----||-------------------------------|
|---3---3-(3)---------3---------------||-------------------------------|
|-----0---------0-------2-----------9-||-(9)---------------------------|
|-----------------------------------9-||-(9)---------------------------|
|-----------------------------------7-||-(7)---------------------------|
|-------------------------------------||-------------------------------|


                        D       C
   E  S S S S S S S S E S S E   E S S S S S S S S S S S S S S
|--0--0-0-0-0-0-0-0-0-0-2-2-2-|-3-3-3-3-3-3-3-3-3-3-3-3-3-3-3-|
|--0--0-0-0-0-0-0-0-0-0-3-3-3-|-1-1-1-1-1-1-1-1-1-1-1-1-1-1-1-|
|--0--0-0-0-0-0-0-0-0-0-2-2-2-|-0-0-0-0-0-0-0-0-0-0-0-0-0-0-0-|
|--2--2-2-2-2-2-2-2-2-2-0-0-0-|-2-2-2-2-2-2-2-2-2-2-2-2-2-2-2-|
|--2--2-2-2-2-2-2-2-2-2-------|-3-3-3-3-3-3-3-3-3-3-3-3-3-3-3-|
|--0--0-0-0-0-0-0-0-0-0-------|-------------------------------|
|
| +H              E   E E   E   W
|-----------------------------|-------------------------------|
|-----------------------------|-------------------------------|
|-(9)-------------9s==7-7s==5-|-5-----------------------------|
|-(9)-------------9s==7-7s==5-|-5-----------------------------|
|-(7)-------------7s==5-5s==3-|-3-----------------------------|
|-----------------------------|-------------------------------|


                        Bm        Am
   E  S S E S S S S S S S S S S   E S S S S S S E S S S S S S
|--3--3-3-3-3-3-3-3-3-3-2-2-2-2-|-0-0-0-0-0-0-0-0-0-0-0-0-0-0-|
|--1--1-1-1-1-1-1-1-1-1-3-3-3-3-|-1-1-1-1-1-1-1-1-1-1-1-1-1-1-|
|--0--0-0-0-0-0-0-0-0-0-4-4-4-4-|-2-2-2-2-2-2-2-2-2-2-2-2-2-2-|
|--2--2-2-2-2-2-2-2-2-2-4-4-4-4-|-2-2-2-2-2-2-2-2-2-2-2-2-2-2-|
|--3--3-3-3-3-3-3-3-3-3-2-2-2-2-|-0-0-0-0-0-0-0-0-0-0-0-0-0-0-|
|-------------------------------|-----------------------------|
|
| +H            E   E   E   E     W
|-------------------------------|-----------------------------|
|-------------------------------|-----------------------------|
|-(5)-----------5s==4---4s==2---|-2---------------------------|
|-(5)-----------5s==4---4s==2---|-2---------------------------|
|-(3)-----------3s==2---2s==0---|-0---------------------------|
|-------------------------------|-----------------------------|


                                    D  Dsus4   D             Dsus2
   E  S S S S S S S S S S S S S S   Q  S S S S  S  S S S S S S S
|--0--0-0-0-0-0-0-0-0-0-0-0-0-0-0-|-2--3-3-3-3--2--2-2-2-2-2-0-0-|
|--1--1-1-1-1-1-1-1-1-1-1-1-1-1-1-|-3--3-3-3-3--3--3-3-3-3-3-3-3-|
|--2--2-2-2-2-2-2-2-2-2-2-2-2-2-2-|-2--2-2-2-2--2--2-2-2-2-2-2-2-|
|--2--2-2-2-2-2-2-2-2-2-2-2-2-2-2-|-0--0-0-0-0--0--0-0-0-0-0-0-0-|
|--0--0-0-0-0-0-0-0-0-0-0-0-0-0-0-|------------------------------|
|---------------------------------|------------------------------|
|
| +E  E   E   E   E   E   E   E     H          +E    Q       E
|---------------------------------|------------------------------|
|-----------------5---------------|------------------8-------7---|
|-(2)---------5-------5-----------|------------------7-------7---|
|-(2)-----5---------------5-------|-7----------(7)---7-------7---|
|-(0)-----------------------------|-5----------(5)---5-------5---|
|-----5-----------------------5---|------------------------------|


                                Interlude
        Dsus4       D            G               Cadd9
   S  S S S S S S S E E E S S    E S S +S  S S S E S S +S  S S S
|--0--0-3-3-3-3-3-3-2-2-2-2-2-||---3-3-(3)-----------3-(3)--------|
|--3--3-3-3-3-3-3-3-3-3-3-3-3-||---3-3-(3)-3---3-----3-(3)-3---3--|
|--2--2-2-2-2-2-2-2-2-2-2-2-2-||---0-0-(0)---0-----0---------0----|
|--0--0-0-0-0-0-0-0-0-0-0-0-0-||----------------------------------|
|-----------------------------||-----------------3----------------|
|-----------------------------||-3--------------------------------|
|
| +E    Q       E   Q   Q        W
|-----------------------------||----------------------------------|
|-(7)---5-------8---8---7-----||----------------------------------|
|-(7)---7-------7---7---7-----||----------------------------------|
|-(7)---7-------7---7---7-----||----------------------------------|
|-(5)---5-------5---5---5-----||----------------------------------|
|-----------------------------||----------------------------------|


  A7sus4          Dsus4 D Dsus2 D Dsus2 G
  S S S S +S  S S S +S  E S +S  S S S   E S S +S  S S S S S S S +S  S S S
|-------3-(3)-----3-(3)-2-0-(0)-2-0-0-|-----3-(3)-----3---3---3-(3)-------|
|-----3-------3---3-(3)-3-3-(3)-3-3-3-|---3-3-(3)-3---3---3---3-(3)-3---3-|
|---0-----------0-2-(2)-2-2-(2)-2-2-2-|---0-0-(0)---0-------0---------0---|
|-0---------------0-(0)-0-0-(0)-0-0-0-|-----------------------------------|
|-------------------------------------|-----------------3-----------------|
|-------------------------------------|-3---------------------------------|


  A7sus4          Dsus4             Cadd9     G/B
  Gtr I
  S S S S +S  S S S S E S S S S S   E S S E S S +S  S S S E S S
|-------3-(3)---------3-3-3-3-3-3-|-3-3-3-3-3-3-(3)-3-3-3-3-3-3-|
|-------3-(3)-3---3-3-3-3-3-3-3-3-|-3-3-3-3-3-3-(3)-3-3-3-3-3-3-|
|---0-0---------------2-2-2-2-2-2-|-0-0-0-0-0-0-(0)-0-0-0-0-0-0-|
|-0-------------0-----0-0---------|-2-2-2-2-2-0-(0)-0-0-0-0-0-0-|
|---------------------------------|-3-3-3-3-3-2-(2)-2-2-2-2-2-2-|
|---------------------------------|-----------------------------|
|
| Gtr II
| W                                 E E   Q      E    E   Q
|---------------------------------|-----------------------------|
|---------------------------------|---3---------------3---------|
|---------------------------------|-------0---------------0-----|
|---------------------------------|-----------------------------|
|---------------------------------|-3------------2--------------|
|---------------------------------|-----------------------------|


  D          Dsus2         D Dsus2 Cadd9     G/B
  E S S E  S S +S  S S S S S S S   E S S E S S +S  S S S E S S
|-2-2-2-2--2-0-(0)-0-0-0-0-2-0-0-|-3-3-3-3-3-3-(3)-3-3-3-3-3-3--|
|-3-3-3-3--3-3-(3)-3-3-3-3-3-3-3-|-3-3-3-3-3-3-(3)-3-3-3-3-3-3--|
|-2-2-2-2--2-2-(2)-2-2-2-2-2-2-2-|-0-0-0-0-0-0-(0)-0-0-0-0-0-0--|
|-0-0-0-0--0-0-(0)-0-0-0-0-0-0-0-|-2-2-2-2-2-0-(0)-0-0-0-0-0-0--|
|--------------------------------|-3-3-3-3-3-2-(2)-2-2-2-2-2-2--|
|--------------------------------|------------------------------|
|
| E E   H.                         E E   Q      E    E   Q
|--------------------------------|------------------------------|
|---3----------------------------|---3---------------3----------|
|-2------------------------------|-------0---------------0------|
|-------0------------------------|------------------------------|
|--------------------------------|-3------------2---------------|
|--------------------------------|------------------------------|


                                   Chorus
  D                     Dsus2       G                 Cadd9
  E S S E S S +S  S S S S S S S     E   S S  S  S S S E   S S  S  S S S
|-2-2-2-2-2-2-(2)-2-2-2-0-0-0-0-||--3---3-3--3--3-3-3-3---3-3--3--3-3-3-|
|-3-3-3-3-3-3-(3)-3-3-3-3-3-3-3-||o-3---3-3--3--3-3-3-3---3-3--3--3-3-3-|
|-2-2-2-2-2-2-(2)-2-2-2-2-2-2-2-||--0---0-0--0--0-0-0-0---0-0--0--0-0-0-|
|-0-0-0-0-0-0-(0)-0-0-0-0-0-0-0-||--0---0-0--0--0-0-0-2---2-2--2--2-2-2-|
|-------------------------------||o-2---2-2--2--2-2-2-3---3-3--3--3-3-3-|
|-------------------------------||--3---3-3--3--3-3-3-------------------|
|
|                               Gtr III
| E E   E S S  S  E   S S S S S     S S S S +S  S E   S S S S +S  S E
|-------------------------------||--3-----------3-----3-----------3-----|
|---3-----3-3--3--3---3-3-3-3-3-||o---3---3-(3)---------3---3-(3)-------|
|-2-------2-2--2--2---2-2-2-2-2-||------0---------0-------0---------0---|
|-------0-----------------------||--------------------------------------|
|-------------------------------||o-------------------------------------|
|-------------------------------||--------------------------------------|


  A7sus4            D     Dsus2 D Dsus2 G                 Cadd9
  E   S S  S  S S S S E   S +S  S S S   E   S S  S  S S S E   S S  S  S S S
|-3---3-3--3--3-3-3-2-2---0-(0)-2-0-0-|-3---3-3--3--3-3-3-3---3-3--3--3-3-3-|
|-3---3-3--3--3-3-3-3-3---3-(3)-3-3-3-|-3---3-3--3--3-3-3-3---3-3--3--3-3-3-|
|-0---0-0--0--0-0-0-2-2---2-(2)-2-2-2-|-0---0-0--0--0-0-0-0---0-0--0--0-0-0-|
|-2---2-2--2--2-2-2-0-0---0-(0)-0-0-0-|-0---0-0--0--0-0-0-2---2-2--2--2-2-2-|
|-0---0-0--0--0-0-0-------------------|-2---2-2--2--2-2-2-3---3-3--3--3-3-3-|
|-------------------------------------|-3---3-3--3--3-3-3-------------------|
|
| S S S S +S  S E   S S S S +S  S E     S S S S +S  S E   S S S S +S  S E
|-3-----------3-----2-----0-(0)-2-----|-3-----------3-----3-----------3-----|
|---3---3-(3)---------3---------------|---3---3-(3)---------3---3-(3)-------|
|-----0---------0-------2---------2---|-----0---------0-------0---------0---|
|-------------------------------------|-------------------------------------|
|-------------------------------------|-------------------------------------|
|-------------------------------------|-------------------------------------|


  A7sus4            D     Dsus2 D Dsus2 G                 Cadd9
  E   S S  S  S S S S E   S +S  S S S   E   S S  S  S S S E   S S  S  S S S
|-3---3-3--3--3-3-3-2-2---0-(0)-2-0-0-|-3---3-3--3--3-3-3-3---3-3--3--3-3-3-|
|-3---3-3--3--3-3-3-3-3---3-(3)-3-3-3-|-3---3-3--3--3-3-3-3---3-3--3--3-3-3-|
|-0---0-0--0--0-0-0-2-2---2-(2)-2-2-2-|-0---0-0--0--0-0-0-0---0-0--0--0-0-0-|
|-2---2-2--2--2-2-2-0-0---0-(0)-0-0-0-|-0---0-0--0--0-0-0-2---2-2--2--2-2-2-|
|-0---0-0--0--0-0-0-------------------|-2---2-2--2--2-2-2-3---3-3--3--3-3-3-|
|-------------------------------------|-3---3-3--3--3-3-3-------------------|
|
| S S S S +S  S E   S S S S +S  S E     S S S S +S  S E   S S S S +S  S E
|-3-----------3-----2-----0-(0)-2-----|-3-----------3-----3-----------3-----|
|---3---3-(3)---------3---------------|---3---3-(3)---------3---3-(3)-------|
|-----0---------0-------2---------2---|-----0---------0-------0---------0---|
|-------------------------------------|-------------------------------------|
|-------------------------------------|-------------------------------------|
|-------------------------------------|-------------------------------------|


  A7sus4            D     Dsus2 D Dsus2 G                 Cadd9
  E   S S  S  S S S S E   S +S  S S S   E   S S  S  S S S E   S S  S  S S S
|-3---3-3--3--3-3-3-2-2---0-(0)-2-0-0-|-3---3-3--3--3-3-3-3---3-3--3--3-3-3-|
|-3---3-3--3--3-3-3-3-3---3-(3)-3-3-3-|-3---3-3--3--3-3-3-3---3-3--3--3-3-3-|
|-0---0-0--0--0-0-0-2-2---2-(2)-2-2-2-|-0---0-0--0--0-0-0-0---0-0--0--0-0-0-|
|-2---2-2--2--2-2-2-0-0---0-(0)-0-0-0-|-0---0-0--0--0-0-0-2---2-2--2--2-2-2-|
|-0---0-0--0--0-0-0-------------------|-2---2-2--2--2-2-2-3---3-3--3--3-3-3-|
|-------------------------------------|-3---3-3--3--3-3-3-------------------|
|
| S S S S +S  S E   S S S S +S  S E     S S S S +S  S E   S S S S +S  S E
|-3-----------3-----2-----0-(0)-2-----|-3-----------3-----3-----------3-----|
|---3---3-(3)---------3---------------|---3---3-(3)---------3---3-(3)-------|
|-----0---------0-------2---------2---|-----0---------0-------0---------0---|
|-------------------------------------|-------------------------------------|
|-------------------------------------|-------------------------------------|
|-------------------------------------|-------------------------------------|


                                             Outro
  A7sus4            D     Dsus2 D Dsus2       G                 Cadd9
  E   S S  S  S S S S E   S +S  S S S         E   S S  S  S S S E   S S  S  S S S
|-3---3-3--3--3-3-3-2-2---0-(0)-2-0-0--||-||--3---3-3--3--3-3-3-3---3-3--3--3-3-3-|
|-3---3-3--3--3-3-3-3-3---3-(3)-3-3-3-o||-||o-3---3-3--3--3-3-3-3---3-3--3--3-3-3-|
|-0---0-0--0--0-0-0-2-2---2-(2)-2-2-2--||-||--0---0-0--0--0-0-0-0---0-0--0--0-0-0-|
|-2---2-2--2--2-2-2-0-0---0-(0)-0-0-0--||-||--0---0-0--0--0-0-0-2---2-2--2--2-2-2-|
|-0---0-0--0--0-0-0-------------------o||-||o-2---2-2--2--2-2-2-3---3-3--3--3-3-3-|
|--------------------------------------||-||--3---3-3--3--3-3-3-------------------|
|
| S S S S +S  S E   S S S S +S  S E           S S S S +S  S E   S S S S +S  S E
|-3-----------3-----2-----0-(0)-2------||-||--3-----------3-----3-----------3-----|
|---3---3-(3)---------3---------------o||-||o---3---3-(3)---------3---3-(3)-------|
|-----0---------0-------2---------2----||-||------0---------0-------0---------0---|
|--------------------------------------||-||--------------------------------------|
|-------------------------------------o||-||o-------------------------------------|
|--------------------------------------||-||--------------------------------------|


  A7sus4            D     Dsus2 D Dsus2
  E   S S  S  S S S S E   S +S  S S S
|-3---3-3--3--3-3-3-2-2---0-(0)-2-0-0-----||
|-3---3-3--3--3-3-3-3-3---3-(3)-3-3-3----o||
|-0---0-0--0--0-0-0-2-2---2-(2)-2-2-2-----||
|-2---2-2--2--2-2-2-0-0---0-(0)-0-0-0-----||
|-0---0-0--0--0-0-0----------------------o||
|-----------------------------------------||
|
| S S S S +S  S E   S S S S +S  S E
|-3-----------3-----2-----0-(0)-2---------||
|---3---3-(3)---------3------------------o||
|-----0---------0-------2---------2-------||
|-----------------------------------------||
|----------------------------------------o||
|-----------------------------------------||


Duration Legend
---------------
W - whole; H - half; Q - quarter; E - 8th; S - 16th; T - 32nd; X - 64th; a - acciaccatura
+ - note tied to previous; . - note dotted; .. - note double dotted
Uncapitalized letters represent notes that are staccato (1/2 duration)
Irregular groupings are notated above the duration line
Duration letters will always appear directly above the note/fret number it represents the
duration for.  Duration letters with no fret number below them represent rests.  Multi-
bar rests are notated in the form Wxn, where n is the number of bars to rest for.  Low
melody durations appear below the staff

Tablature Legend
----------------
 h   - hammer-on
 p   - pull-off
 b   - bend
 pb  - pre-bend
 r   - bend release (if no number after the r, then release immediately)
 /\  - slide into or out of (from/to "nowhere")
 s   - legato slide
 S   - shift slide
  - natural harmonic
[n]  - artificial harmonic
n(n) - tapped harmonic
 ~   - vibrato
 tr  - trill
 T   - tap
 TP  - trem. picking
 PM  - palm muting
\n/  - tremolo bar dip; n = amount to dip
 \n  - tremolo bar down
 n/  - tremolo bar up
/n\  - tremolo bar inverted dip
 =   - hold bend; also acts as connecting device for hammers/pulls
 <>  - volume swell (louder/softer)
 x   - on rhythm slash represents muted slash
 o   - on rhythm slash represents single note slash

Misc Legend
-----------
 |  - bar
||  - double bar
||o - repeat start
o|| - repeat end
*|  - double bar (ending)
 :  - bar (freetime)
 $  - Segno
 &  - Coda
Tempo markers -  = BPM(8/16=s8/s16), where s8 = swing 8ths, s16 = swing 16ths



Come to my window
Crawl inside, wait by the light
Of the moon
Come to my window
I'll be home soon

I would dial the numbers
Just to listen to your breath
I would stand inside my hell
And hold the hand of death
You don't know how far I'd go
To ease this precious ache
You don't know how much I'd give
Or how much I can take

Just to reach you
Just to reach you
Just to reach you

Come to my window
Crawl inside, wait by the light
Of the moon
Come to my window
I'll be home soon

Keeping my eyes open
I cannot afford to sleep
Giving away promises
I know that I can't keep
Nothing fills the blackness
That has seeped into my chest
I need you in my blood
I am forsaking all the rest
Just to reach you
Just to reach you
Oh to reach you

Come to my window
Crawl inside, wait by the light
Of the moon
Come to my window
I'll be home soon

I don't care what they think
I don't care what they say
What do they know about this
Love anyway

Come to my window
Crawl inside, wait by the light
Of the moon
Come to my window
I'll be home soon

            
            
Suggest correction
Creating personal tab
Creating personal tab
You can edit any tab online and save it as your Personal.

You can edit, replace or remove any tab part or add personal notes – all changes will be seen only by you.

Personal tabs can be accessed anytime from any device, even offline.
Learn more »
Give kudos to tab author, rate the tab!
1 2 3 4 5
comments
print report bad tab
guest
You may want to rate the tab now too:
select rating
Wanna post a correction for this tab? Suggest correction