Oops, an error
Loading. Please wait.

Your Little Secret Bass Tab

909 views 1 this week
no commentswrite comment
1 2 3 4 5
please rate
add to favorites
launch autoscroll
font size
0
reset
guitar tuner
Autoscroll
slow
fast
+/-
esc
set tempo
stop
Help us to improve Ultimate-Guitar.com Take our survey!
×
Contributor
Difficulty
novice
Drums Intro

Verse x4
“I know what you’re thinking, baby…”
G|---------------------------------|
D|---------12-----12-10------------|
A|-12--10----------------12--------|
E|---------------------------------|

“You—You’re takin’ out your loans…”
G|---------------------------------|-------------------------------|
D|---------------------------------|-------------------------------|
A|-2-2-2-2-2h5-5-5-5-5-------------|-3-3-3-3-3---------------------|
E|---------------------5-5-5-5-5---|-----------0-0-0-0—00000000----|

“I like the way you look…”
G|---------------------------------|-------------------------------|
D|---------------------------------|-------------------------------|
A|-----------5-5-5-5-5-------------|-5-5-5-5-5-----------5-5-5-5-5-|
E|-5-5-5-5-5-----------3-3-3-3-3---|-----------5-5-5-5-5-----------|

“Baby, makes three…”
G|---------------------------------|-------------------------------|
D|---------------------------------|-------------------------------|
A|-----------5-5-5-5-5-------------|-5-5-5-5-5-----------5-5-5-5-5-|
E|-3-3-3-3-3-----------5-5-5-5-5---|-----------3-3-3-3-3-----------|

“..secret”
G|---------------------------------|-------------------------------|
D|---------------------------------|-------------------------------|
A|---------------------------------|-------------------------------|
E|-5~------------------------------|-------------------------------|

Verse x4
“Tell it softly to me, baby…”
G|---------------------------------|
D|---------12-----12-10------------|
A|-12--10----------------12--------|
E|---------------------------------|

“You—You’re stepping out of line…”
G|---------------------------------|-------------------------------|
D|---------------------------------|-------------------------------|
A|-2-2-2-2-2h5-5-5-5-5-------------|-3-3-3-3-3---------------------|
E|---------------------5-5-5-5-5---|-----------0-0-0-0—00000000----|

“I like the way you look…”
G|---------------------------------|-------------------------------|
D|---------------------------------|-------------------------------|
A|-----------5-5-5-5-5-------------|-5-5-5-5-5-----------5-5-5-5-5-|
E|-5-5-5-5-5-----------3-3-3-3-3---|-----------5-5-5-5-5-----------|




“Baby, makes three…”
G|---------------------------------|-------------------------------|
D|---------------------------------|-------------------------------|
A|-----------5-5-5-5-5-------------|-5-5-5-5-5-----------5-5-5-5-5-|
E|-3-3-3-3-3-----------5-5-5-5-5---|-----------3-3-3-3-3-----------|

“..secret”
G|---------------------------------|-------------------------------|
D|---------------------------------|-------------------------------|
A|---------------------------------|-------------------------------|
E|-5~------------------------------|-------------------------------|

“I count – I won’t”
G|---------------------------------|---------------------------------|
D|---------------------------------|---------------------------------|
A|---------------------------------|---------------------------------|
E|-0-0-0-0-1-1-1-1-0-0-0-0-1-1-1-1-|-0-0-0-0-1-1-1-1-0-0-0-0-1-1-1-1-|

“I,I..I”
G|---------------------------------|-------------------------------|
D|---------------------------------|-------------------------------|
A|---------------------------------|-------------------------------|
E|-3-3-3-3-3-3---------------------|-------------------------------|

Guitar Solo
G|---------------------------------|-------------------------------|
D|---------------------------------|-------------------------------|
A|-----------5-5-5-5-5-------------|-5-5-5-5-5-----------5-5-5-5-5-|
E|-5-5-5-5-5-----------3-3-3-3-3---|-----------5-5-5-5-5-----------|

G|---------------------------------|-------------------------------|
D|---------------------------------|-------------------------------|
A|-----------5-5-5-5-5-------------|-5-5-5-5-5-----------5-5-5-5-5-|
E|-3-3-3-3-3-----------5-5-5-5-5---|-----------3-3-3-3-3-----------|

“I like the way you look…”
G|---------------------------------|-------------------------------|
D|---------------------------------|-------------------------------|
A|-----------5-5-5-5-5-------------|-5-5-5-5-5-----------5-5-5-5-5-|
E|-5-5-5-5-5-----------3-3-3-3-3---|-----------5-5-5-5-5-----------|

“Baby, makes three…”
G|---------------------------------|-------------------------------|
D|---------------------------------|-------------------------------|
A|-----------5-5-5-5-5-------------|-5-5-5-5-5-----------5-5-5-5-5-|
E|-3-3-3-3-3-----------5-5-5-5-5---|-----------3-3-3-3-3-----------|

“..secret”			       Play 8x Fast with the rhythm
G|---------------------------------|-------------------------------|
D|---------------------------------|-------------------------------|
A|---------------------------------|---5---5-----------------------|
E|-5~------------------------------|-5---3-------------------------|
           “…scream”     
G|---------------------------------|
D|---------12-----12-10------------|
A|-12--10----------------12--------|
E|---------------------------------|
comments
We did not receive enough feedback on this tab! Please rate:
print report bad tab
1 2 3 4 5
I want to post or [tab]
guest
You may want to rate the tab now too:
select rating
Please do not post tabs as comments. Select "correction" instead!