Oops, an error
Loading. Please wait.

Som Jag Hade Dig Frut Chords

8,260 views 18 this week
no commentswrite comment
1 2 3 4 5
please rate
add to favorites
launch autoscroll
font size
0
reset
transpose
0
reset
display chords
guitar tuner
Autoscroll
slow
fast
+/-
esc
set tempo
stop
Help us to improve Ultimate-Guitar.com Take our survey!
×
Author
Difficulty
novice
-------------------------------------------------------------------------------
			     Som jag hade dig förut - Melissa Horn och Lars Winnerbäck
-------------------------------------------------------------------------------
Tabbed by: Joel Bergström
Email: julle_b@hotmail.com

Tuning: Standard

Intro, mellanspel & refräng:

	F                C                  A#
e|----1------5--1------0----3--1----------1----1---------3--1----------------|
B|----1------1--1------0----1--1----------3----1---------1--1----------------|	*4
G|----2----------------5------------------3----------------------------------|
D|----3----------------5------------------3----------------------------------|
A|----3----------------3------------------1----------------------------------|
E|----1----------------------------------------------------------------------|

Vers:

F                    A#
Du springer aldrig ifatt,
                F
När jag väl är där
           F				
Jag vill inte tänka framåt
          A#               F				    
Men är livrädd att fastna här
                     A#	  
Nu kan det vara för sent
C                   F
  Att säga som det är


Vi testar nya vägar
Som aldrig tycks ta slut
Vi har försökt att fånga den andra
Men aldrig nått ut
Jag vill ha en sista chans
Så jag säger det rakt ut

Jag vill ha dig nu
Som jag hade dig förut
Jag vill ha dig nu
Som jag hade dig förut

Jag vet att det är svårt över telefon
Men när jag har dig nära
Vill du därifrån
Jag vet att du har tänkt
Men berätta hur du mår

Jag försöker träffa andra
Men det är inte så lätt
Jag har försökt att tänka bort dig
På alla sätt
Det är dags att lägga på
Men att stanna känns så rätt

Och jag vill ha dig nu
Som jag hade dig förut
Jag vill ha dig nu
Som jag hade dig förut
Jag vill ha dig nu
Som jag hade dig förut
Jag vill ha dig nu
Som jag hade dig förut
Suggest correction
Give kudos to tab author, rate the tab!
1 2 3 4 5
comments
print report bad tab
guest
You may want to rate the tab now too:
select rating
Wanna post a correction for this tab? Suggest correction