Oops, an error
Loading. Please wait.

Alive Tab

version 1
version 1

Whole song

Interactive

1,588 views 1 this week
1 commentread comment
1 2 3 4 5
please rate
add to favorites
launch autoscroll
font size
0
reset
how to read this tab
guitar tuner
Tab Pro tools
  • play this tab
  • loop segment
  • change instrument
  • show fretboard
  • metronome
×
Best way to learn
"Alive"
Autoscroll
slow
fast
+/-
esc
set tempo
stop
Contributor
alright, melissa is an awesome singer and an awesome person! and she put out a great 
album, on top of all that she's from Calgary!!
so here is her first single.

Song: Alive
Artist: Melissa O'Neil
Album: Melissa O'Neil
Tuning: Standard
Written By: Rob Wells, L. Robbins, J. Cates

Tab Legend
^= upstroke
~= Let Ring
.= Palm Mute

Intro     ^    ^    ^    ^
e|-----2222-2222-2222-2222---|
B|-----3333-3333-3333-3333---|
G|-----2222-2222-2222-2222---|
D|-----0000-0000-0000-0000---|
A|---------------------------|
E|---------------------------|

Verse     ^    ^    ^    ^    ^    ^    ^    ^    ^    ^    ^    ^
e|-----2222-2222---------------------3333-3333-2222-2222--------------|
B|-----3333-3333---------------------3333-3333-3333-3333--------------|
G|-----2222-2222-3333-3333-4444-4444-0000-0000-2222-2222-3333-3333----|
D|-----0000-0000-4444-4444-4444-4444-0000-0000-0000-0000-4444-4444----| cont.
A|---------------4444-4444-2222-2222-2222-2222-----------4444-4444----|
E|---------------2222-2222-----------3333-3333-----------2222-2222----|
          ^    ^ ............
e|--------------------------------|
B|--------------------------------|
G|-----4444-4444------------------|
D|-----4444-4444-222222222222-----|  Then there's a pause here right before
A|-----2222-2222-222222222222-----|  the chorus
E|---------------000000000000-----|

Chorus
e|---------------------------------------------------------------|
B|---------------------------------------------------------------|
G|-----4444-7777-66666666-4444-7777-66666666-4444-7777-6666-8888-|
D|-----5555-7777-77777777-5555-7777-77777777-5555-7777-7777-9999-| cont.
A|-----5555-5555-77777777-5555-5555-77777777-5555-5555-7777-9999-|
E|-----3333------55555555-3333------55555555-3333------5555-7777-|

e|---------------------|
B|---------------------|
G|-----44444444--------|
D|-----55555555-2~~~---|
A|-----55555555-2~~~---|
E|-----33333333-0~~~---|

Verse 2   ^    ^    ^    ^    ^    ^    ^    ^    ^    ^    ^    ^
e|-----2222-2222---------------------3333-3333-2222-2222--------------|
B|-----3333-3333---------------------3333-3333-3333-3333--------------|
G|-----2222-2222-3333-3333-4444-4444-0000-0000-2222-2222-3333-3333----|
D|-----0000-0000-4444-4444-4444-4444-0000-0000-0000-0000-4444-4444----| cont.
A|---------------4444-4444-2222-2222-2222-2222-----------4444-4444----|
E|---------------2222-2222-----------3333-3333-----------2222-2222----|
          ^    ^    ^    ^    ^    ^    ^    ^    ^    ^
e|---------------3333-3333-2222-2222---------------------|
B|---------------3333-3333-3333-3333---------------------|
G|-----4444-4444-0000-0000-2222-2222-3333-3333-4444-4444-|
D|-----4444-4444-0000-0000-0000-0000-4444-4444-4444-4444-| cont.
A|-----2222-2222-2222-2222-----------4444-4444-2222-2222-|
E|---------------3333-3333-----------2222-2222-----------|
       ........
e|------------------------------|
B|------------------------------|
G|------------------------------|
D|-----22222222222222222222-----|
A|-----22222222222222222222-----|
E|-----00000000000000000000-----|


Chorus
e|---------------------------------------------------------------|
B|---------------------------------------------------------------|
G|-----4444-7777-66666666-4444-7777-66666666-4444-7777-6666-8888-|
D|-----5555-7777-77777777-5555-7777-77777777-5555-7777-7777-9999-| cont.
A|-----5555-5555-77777777-5555-5555-77777777-5555-5555-7777-9999-|
E|-----3333------55555555-3333------55555555-3333------5555-7777-|

e|---------------------------|
B|---------------------------|
G|-----44444444--------------|
D|-----55555555-22222222-----|
A|-----55555555-22222222-----|
E|-----33333333-00000000-----|

Bridge
e|--------------------------------------------------------------------|
B|--------------------------------------------------------------------|
G|-----44444444-33333333-44444444----------44444444-33333333-44444444-|
D|-----44444444-44444444-55555555-22222222-44444444-44444444-55555555-| cont.
A|-----22222222-44444444-55555555-22222222-22222222-44444444-55555555-|
E|--------------22222222-33333333-00000000----------22222222-33333333-|

e|------------------|
B|------------------|
G|------------------|
D|-----22222222-----|
A|-----22222222-----|
E|-----00000000-----|

Breakdown- for this part you just want to lightly roll your pick over the strings ........
e|-----3-3-2-2---------3-3-2-2---------3-3-2-2------------------------------|
B|-----3-3-3-3-2-2-2-2-3-3-3-3-2-2-2-2-3-3-3-3-2-2--------------------------|
G|-----0-0-2-2-2-2-2-2-0-0-2-2-2-2-2-2-0-0-2-2-2-2-4-4----------------------|
D|-----0-0-0-0-2-2-2-2-0-0-0-0-2-2-2-2-0-0-0-0-2-2-4-4-22222222222222222222-|
A|-----2-2-----0-0-0-0-2-2-----0-0-0-0-2-2-----0-0-2-2-22222222222222222222-|
E|-----3-3-------------3-3-------------3-3-------------00000000000000000000-|

Chorus 3
e|---------------------------------------------------------------|
B|---------------------------------------------------------------|
G|-----4444-7777-66666666-4444-7777-66666666-4444-7777-6666-8888-|
D|-----5555-7777-77777777-5555-7777-77777777-5555-7777-7777-9999-| cont.
A|-----5555-5555-77777777-5555-5555-77777777-5555-5555-7777-9999-|
E|-----3333------55555555-3333------55555555-3333------5555-7777-|

e|---------------------|
B|---------------------|
G|-----44444444--------|
D|-----55555555-2~~~---|
A|-----55555555-2~~~---|
E|-----33333333-0~~~---|

So there it is. the tab is ALIVE! plz comment! and dont forget to rate!
comments
We did not receive enough feedback on this tab! Please rate:
print report bad tab
1 2 3 4 5
1 comment total.
0 reply
ironkat wrote on January 9 2006, 11:26 am

very nice...

good for the guitarists, but for pianists and guitarists who dont like reading tabs i think mine's better.

but good job XD

I want to post or [tab]
guest
You may want to rate the tab now too:
select rating
Please do not post tabs as comments. Select "correction" instead!