Oops, an error
Loading. Please wait.

Let It Go tab

182 views 3 this week
3 commentsread comments
1 2 3 4 5
1 last vote to show rating
add to favorites
×
Save as Personal and add changes to this tab that will be seen only by you. Learn more ›
×
You can save this tab as Personal to edit and correct it or add notes. All changes will be seen only by you. Learn more »
launch autoscroll
font size
0
reset
how to read this tab
guitar tuner
edit
Autoscroll
slow
fast
+/-
esc
set tempo
stop
Author
Difficulty
alright, i know all you monkeys have been waiting for this tab so... its done! it's a 
song and i think its about 99.9% correct, i dunno, it could be 100%. but who knows. 
here you go monkeys, have fun!

Song: Let It Go
Artist: Melissa O'Neil
Album: Melissa O'Neil
Tuning: Standard
Written By: Rob Wells, Alonzo, Rupert Gayle

Intro- this is played on an acoustic, just pick each note
e|-------------------|
B|-------------------|
G|-------------------|  4x
D|-------6-7-6-6-----|
A|------7-----7------|
E|-----5--5----------|

Verse- for the power chords played on the 2nd fret, just play it really lightly, and 
time make it harder, so its kinda like a bulid up
e|---------------------------------------------------------------------|
B|---------------------------------------------------------------------|
G|---------------------------------------------------------------------|
D|-----4444444444444444---6-7-6-6---6-7-6-6-4444444444444444---6-7-6-6-| cont
A|-----4444444444444444--7-----7---7-----7--4444444444444444--7-----7--|
E|-----2222222222222222-5--5------5--5------2222222222222222-5--5------|

e|---------------------------------------------------------------------|
B|---------------------------------------------------------------------|
G|---------------------------------------------------------------------|
D|-------6-7-6-6-4444444444444444---6-7-6-6---6-7-6-6-4444444444444444-| cont
A|------7-----7--4444444444444444--7-----7---7-----7--4444444444444444-|
E|-----5--5------2222222222222222-5--5------5--5------2222222222222222-|

e|------------------------------------------------------------------2-----|
B|----------------------------------------------5---------5---------X-----|
G|----------------------------------------------8---------8---------3-----|
D|-------6-7-6-6---6-7-6-6-4444444444444444---7---7-7---7---7-7---4---4-4-| ->
A|------7-----7---7-----7--4444444444444444--7-----7---7-----7---4-----4--|
E|-----5--5------5--5------2222222222222222-5--5------5--5------2--2------|

e|---------2-----------------------------|
B|---------X---------5---------5---------|
G|---------3---------8---------8---------|
D|-------4---4-4---7---7-7---7---7-7-----|
A|------4-----4---7-----7---7-----7------|
E|-----2--2------5--5------5--5----------|

Chorus
e|----------------------------------------------------------|
B|----------------------------------------------------------|
G|-----44444444-77777777------------------44444444-77777777-|
D|-----44444444-77777777-7777777777777777-44444444-77777777-|
A|-----22222222-55555555-7777777777777777-22222222-55555555-|
E|-----------------------5555555555555555-------------------|  cont.

e|-------------------------------------------------------------------|
B|-------------------------------------------------------------------|
G|-----------------------44444444-77777777------------------44444444-|
D|-----77777777-22222222-44444444-77777777-7777777777777777-44444444-| cont.
A|-----77777777-22222222-22222222-55555555-7777777777777777-22222222-|
E|-----55555555-00000000-------------------5555555555555555----------|

e|------------------|
B|------------------|
G|-----77777777-----|
D|-----77777777-7~~-|
A|-----55555555-7~~-|
E|--------------5~~-|

Verse 2- pretty much the same except for the electric guitar that comes in
e|---------------------------------------------------------------------|
B|---------------------------------------------------------------------|
G|---------------------------------------------------------------------|
D|-----4444444444444444---6-7-6-6---6-7-6-6-4444444444444444---6-7-6-6-| cont
A|-----4444444444444444--7-----7---7-----7--4444444444444444--7-----7--|
E|-----2222222222222222-5--5------5--5------2222222222222222-5--5------|

e|---------------------------------------------------------------------|
B|---------------------------------------------------------------------|
G|---------------------------------------------------------------------|
D|-------6-7-6-6-4444444444444444---6-7-6-6---6-7-6-6-4444444444444444-| cont
A|------7-----7--4444444444444444--7-----7---7-----7--4444444444444444-|
E|-----5--5------2222222222222222-5--5------5--5------2222222222222222-|

e|------------------------------------------------------------------2-----|
B|----------------------------------------------5---------5---------X-----|
G|----------------------------------------------8---------8---------3-----|
D|-------6-7-6-6---6-7-6-6-4444444444444444---7---7-7---7---7-7---4---4-4-| ->
A|------7-----7---7-----7--4444444444444444--7-----7---7-----7---4-----4--|
E|-----5--5------5--5------2222222222222222-5--5------5--5------2--2------|

e|---------2-----------------------------|
B|---------X---------5---------5---------|
G|---------3---------8---------8---------|
D|-------4---4-4---7---7-7---7---7-7-----|
A|------4-----4---7-----7---7-----7------|
E|-----2--2------5--5------5--5----------|

and the electric guitar that comes in, starts on the first note of every chord like this
e|-----------------|
B|-----------------|
G|-----------------|
D|-------4~~---7~~-|
A|------4~~~--7~~~-|
E|-----2~~~~-5~~~~-|
 and then it stums the entire chord near the end
e|-----2~~~-5~~~-----|
B|-----2~~~-5~~~-----|
G|-----3~~~-6~~~-----|
D|-----4~~~-7~~~-----|
A|-----4~~~-7~~~-----|
E|-----2~~~-5~~~-----|

Chorus 2
e|----------------------------------------------------------|
B|----------------------------------------------------------|
G|-----44444444-77777777------------------44444444-77777777-|
D|-----44444444-77777777-7777777777777777-44444444-77777777-|
A|-----22222222-55555555-7777777777777777-22222222-55555555-|
E|-----------------------5555555555555555-------------------|  cont.

e|-------------------------------------------------------------------|
B|-------------------------------------------------------------------|
G|-----------------------44444444-77777777------------------44444444-|
D|-----77777777-22222222-44444444-77777777-7777777777777777-44444444-| cont.
A|-----77777777-22222222-22222222-55555555-7777777777777777-22222222-|
E|-----55555555-00000000-------------------5555555555555555----------|

e|-----------------------------------|
B|-----------------------------------|
G|-----77777777----------------------|
D|-----77777777-7777777777777777-----|
A|-----55555555-7777777777777777-----|
E|--------------5555555555555555-----|

Bridge- the first power chord has a different strumming pattern, you can figure it out
e|-------------------------------------------------------------------------|
B|-------------------------------------------------------------------------|
G|----------------------7777777777777777-----------------------------------|
D|-----4444444444444444-7777777777777777-7777777777777777-2222222222222222-|
A|-----4444444444444444-5555555555555555-7777777777777777-2222222222222222-|
E|-----2222222222222222------------------5555555555555555-0000000000000000-|


e|-------------------------------------------------------------------------|
B|-------------------------------------------------------------------------|
G|----------------------7777777777777777-----------------------------------|
D|-----4444444444444444-7777777777777777-7777777777777777-2222222222222222-|
A|-----4444444444444444-5555555555555555-7777777777777777-2222222222222222-|
E|-----2222222222222222------------------5555555555555555-0000000000000000-|

Then there's the little break in the song and the guitar is just doing this
e|-----XXXXXXXXXXXXXXXX-----|
B|-----XXXXXXXXXXXXXXXX-----|
G|-----XXXXXXXXXXXXXXXX-----|
D|-----XXXXXXXXXXXXXXXX-----|
A|-----XXXXXXXXXXXXXXXX-----|
E|-----XXXXXXXXXXXXXXXX-----| you figure out how he strums it

Chorus 3
e|----------------------------------------------------------|
B|----------------------------------------------------------|
G|-----44444444-77777777------------------44444444-77777777-|
D|-----44444444-77777777-7777777777777777-44444444-77777777-|
A|-----22222222-55555555-7777777777777777-22222222-55555555-|
E|-----------------------5555555555555555-------------------|  cont.

e|-------------------------------------------------------------------|
B|-------------------------------------------------------------------|
G|-----------------------44444444-77777777------------------44444444-|
D|-----77777777-22222222-44444444-77777777-7777777777777777-44444444-| cont.
A|-----77777777-22222222-22222222-55555555-7777777777777777-22222222-|
E|-----55555555-00000000-------------------5555555555555555----------|

e|------------------|
B|------------------|
G|-----77777777-----|
D|-----77777777-7~~-|
A|-----55555555-7~~-|
E|--------------5~~-|

and thats it! have fun!

PS: it'll take a while to get used to the picked part, and to play without pauses. keep 
Peace out monkeys!
Suggest correction
Creating personal tab
Creating personal tab
You can edit any tab online and save it as your Personal.

You can edit, replace or remove any tab part or add personal notes – all changes will be seen only by you.

Personal tabs can be accessed anytime from any device, even offline.
Learn more »
Give kudos to tab author, rate the tab!
1 2 3 4 5
comments
print report bad tab
3 comments total.
0 reply
ironkat 162 Jan 16, 2006 06:04 AM

ummm... I don't think you got the intro right, i played it and it didn't fit in :S

And, the chorus is sorta off as well, I think you tabbed the wrong power chords.

No offense, I'm just speaking my mind... but all you're other tabs are great! =D

0 reply
GreenDaykid_16 171 Jan 16, 2006 10:49 AM

no, i played it with the cd, it sounds dead on

0 reply
ironkat 162 Jan 18, 2006 08:03 AM

no, you missed quite a few of the chord changes... and i'm pretty sure the intro is off, i played it like 4 times w/ the CD.

In your tab, the intro is an A major chord variation, on the CD, it's an F#m chord that the guitar is fiddling around with.

guest
You may want to rate the tab now too:
select rating
Wanna post a correction for this tab? Suggest correction