Oops, an error
Loading. Please wait.

Between The Lines Tab

136 views 1 this week
no commentswrite comment
1 2 3 4 5
please rate
add to favorites
launch autoscroll
font size
0
reset
how to read this tab
guitar tuner
Autoscroll
slow
fast
+/-
esc
set tempo
stop
Help us to improve Ultimate-Guitar.com Take our survey!
×
Author
-------------------------------------------------------------------------------
                             Mellow - Between the lines
-------------------------------------------------------------------------------
Tabbed by:lovelylight
Album: Perfect Colors
Tuning:EADGBe

A lovely song by a great band. cant wait for the next album! almost 5 years now its about time!

PART 1

G        D        A                 G
      Im starting,  theres trouble around my world  
G                         D                     C                A
      Was waiting for the train again, it never came its all the same  

PART 2

  But i wont cry                I keep it all inside 
              D                                  D7
e|----------------2-------------------------------------2--------------------|
B|---------------------3---------------------------------------1-------------|
G|---------------------------2----------------------------------------2------|
D|----------0------------------------------------0---------------------------|
A|---------------------------------------------------------------------------|
E|---------------------------------------------------------------------------|



  I wont lie for you            Im not in your game
         G                                     Bb
e|--------------3----------------------------------------1-------------------|
B|-------------------0------------------------------------------3------------|
G|------------------------0--------------------------------------------3-----|
D|-------0-------------------------------------3-----------------------------|
A|---------------------------------------------------------------------------|
E|---------------------------------------------------------------------------|


    I need time                  To make up my mind
            D                                   D7
e|----------------2-------------------------------------2--------------------|
B|---------------------3---------------------------------------1-------------|
G|---------------------------2----------------------------------------2------|
D|----------0------------------------------------0---------------------------|
A|---------------------------------------------------------------------------|
E|---------------------------------------------------------------------------|


the truth inside of you         so hard to find
         G                                     Bb
e|--------------3----------------------------------------1-------------------|
B|-------------------0------------------------------------------3------------|
G|------------------------0--------------------------------------------3-----|
D|-------0-------------------------------------3-----------------------------|
A|---------------------------------------------------------------------------|
E|---------------------------------------------------------------------------|

Part 3

Bridge Bass notes:  ~~~~~~~~ = Slide

A|-----3~~~~~5-----3-----1---------------------------------------------------|
E|-----------------------------3-----1--------------------5-----4------------|


G                             D                            A
  If i could read between the lines and take it easy for a while
                          G
  only then i can see for miles and miles
G                     D                        C              A
  was waiting for the same old train, it never came oh what a shame..


Repeat PART 2, then PART 3 without the 2 last bass notes



 G (hit it hard and let it ring)         G (again let it ring!)

         Sitar part   (strike close to the bridge to mimic) 
             Bb                                      Bb
e|---------------------------------------------------------------------------|
B|-----------3-------1-------3-----------------------3-------1-------3-------|
G|---------------------------------------------------------------------------|
D|---------------------------------------------------------------------------|
A|---------------------------------------------------------------------------|
E|---------------------------------------------------------------------------|

    D                  D7                  G                  Bb
                     Sitar solo goes something like this
                                                                          
e|-------0---2---3---5----3----2---0---------0-------------------------------|
B|--3-----------------------------------3---------1-------3-------1----------|
G|-----------------------------------------------------------------------2---|
D|---------------------------------------------------------------------------|
A|---------------------------------------------------------------------------|
E|---------------------------------------------------------------------------|

I wont.....Repeat PART 2 until end........thanks enjoy this pretty song


Suggest correction
What's this?
You can suggest a correction to this tab. Community and Mods will review your correction and vote to approve or reject it.
comments
We did not receive enough feedback on this tab! Please rate:
print report bad tab
1 2 3 4 5
guest
You may want to rate the tab now too:
select rating
Please do not post tabs as comments. Select "correction" instead!