Oops, an error
Loading. Please wait.

Goodbye Tab

96 views 1 this week
no commentswrite comment
1 2 3 4 5
please rate
add to favorites
launch autoscroll
font size
0
reset
how to read this tab
guitar tuner
Tab Pro tools
  • play this tab
  • loop segment
  • change instrument
  • show fretboard
  • metronome
×
Best way to learn
"Goodbye"
Autoscroll
slow
fast
+/-
esc
set tempo
stop
Contributor
Difficulty
intermediate
-------------------------------------------------------------------------------
                             Mellow - Goodbye
-------------------------------------------------------------------------------
Tabbed by:Lovelylight
Album: Perfect Colors
Tuning: EADGBe

Heres a nice little song drenched with sunshine


Play most the Chords with finger-style

Intro:
Repeat 2x
                    A                                      D
e|------------------0--------------------------------------5-----------------|
B|-----------2-----------2-----------------------7----------------7----------|
G|-----------------------------2-----------------------------------------7---|
D|----2----------------------------------7-----------------------------------|
A|---------------------------------------------------------------------------|
E|---------------------------------------------------------------------------|


A       Amaj7        A7                             D
Goodbye mellow days, lovely days i know we had some fun
   F       G      A
it somehow has an end
A       Amaj7       A7                            D
Goodbye morose sky, mellow snow, wont you take my hands?
    F         G     A
You know that its a dream...

A         D                 A      D              A
How can i forget the lovely summer when we use to lie
       D                  A
on the green grass in the garden?

Repeat 2x
                    A                                      D
e|------------------0--------------------------------------5-----------------|
B|-----------2-----------2-----------------------7----------------7----------|
G|-----------------------------2-----------------------------------------7---|
D|----2----------------------------------7-----------------------------------|
A|---------------------------------------------------------------------------|
E|---------------------------------------------------------------------------|


A       Amaj7      A7                                     D
Goodbye wild ones, student years, i think we have to move on...
F   G               A
     where there is sunshine!
A       Amaj7           A7                        D
Goodbye fairy tales and mind games i hope we meet again
F   G            A
     if there is freedom!

A            D              A      D              A
How can i forget the lovely summer when we use to lie
       D                  A
on the green grass in the garden?


Repeat 1x
                    A                                      D
e|------------------0--------------------------------------5-----------------|
B|-----------2-----------2-----------------------7----------------7----------|
G|-----------------------------2-----------------------------------------7---|
D|----2----------------------------------7-----------------------------------|
A|---------------------------------------------------------------------------|
E|---------------------------------------------------------------------------|



                        Synth solo
  A         Amaj7          A7          D          F          G          A
e|-----5--7---9---5---7-----------5--------10-----9----7------5----5----7---5|
B|--5----------------------5-------------------------------------------------|
G|---------------------------------------------------------------------------|
D|---------------------------------------------------------------------------|
A|---------------------------------------------------------------------------|
E|---------------------------------------------------------------------------|

  A         Amaj7          A7          D          F          G          A
e|---------5----7----5-----12-------10-----9---------------------------------|
B|---5--------------------------------------------10--------12---------10----|
G|---------------------------------------------------------------------------|
D|---------------------------------------------------------------------------|
A|---------------------------------------------------------------------------|
E|---------------------------------------------------------------------------|


Keep playing A

then play this horn section 2X

e|---------------------------------------------------------------------------|
B|-------------5-------------------------------------------------------------|
G|----7--6--4------6-------7-------6------4----------------------------------|
D|------------------------------------------------7-------5--------7---------|
A|---------------------------------------------------------------------------|
E|---------------------------------------------------------------------------|

Then keep repeating it to finish the song

F  G  A are the progression to finish the song with the horn section

have fun with this enjoyable song!
comments
We did not receive enough feedback on this tab! Please rate:
print report bad tab
1 2 3 4 5
I want to post or [tab]
guest
You may want to rate the tab now too:
select rating
Please do not post tabs as comments. Select "correction" instead!