Oops, an error
Loading. Please wait.

Take Me Higher Tab

1,345 views 18 this week
no commentswrite comment
1 2 3 4 5
excellent!
x 1
add to favorites
launch autoscroll
font size
0
reset
how to read this tab
guitar tuner
Tab Pro tools
  • play this tab
  • loop segment
  • change instrument
  • show fretboard
  • metronome
Autoscroll
slow
fast
+/-
esc
set tempo
stop
Contributor
Difficulty
novice
-------------------------------------------------------------------------------
                             Mellow - Take me higher
-------------------------------------------------------------------------------
Tabbed by:lovelylight
Album: CQ
Tuning:EADGBe

Soundtrack song from the Roman Capella film CQ



                                 Intro/Bass
                                                                       ETC.
e|---------------------------------------------------------------------------|
B|---------------------------------------------------------------------------|
G|---------------------------------------------------------------------------|
D|---------------------------------------------------------------------------|
A|----3-----3----3----3-----------------------3---3---3---3------------------|
E|--------------------------3---3---3---3---------------------3---3---3---3--|


C                         G                    C    G
Fresh as the drops of the ?????????????
C                            G                 C    G
Shining like the nights in a summers day
C                                   G          C    G
Im dreaming that your gonna take me far away
C                               G              C    G
Im saving on the sound of every word you say



F        F    F# G     G  G#  
Take me, Take me higher
Bb                              F
It could be so easy to light my fire

(Bass notes):  A G# G F    (Big E string 5-4-3-1)

         F        F    F# G     G  G#
Wont you take me? Take me higher
Bb                              F          F  F#  G
It could be so easy to light my fireeeeeeeeee.....

(Bass notes)

A}-------5----3----3p5----3----------|
E)----------------------------3------|



repeating chords sitar solo:   C      G 


                       Sitar solo (strike close to the bridge to mimic)

e|---------------------------------------------------------------------------|
B|-----1--------3--------3----------1----------------------------------------|
G|----------------------------------------------------0----------------------|
D|---------------------------------------------------------------------------|
A|---------------------------------------------------------------------------|
E|---------------------------------------------------------------------------|


e|------------------------------------0--------------------------------------|
B|-----1-------------------1------------------1--------------------1---------|
G|---------------3----------------------------------------3-----------------0|
D|---------------------------------------------------------------------------|
A|---------------------------------------------------------------------------|
E|---------------------------------------------------------------------------|


C                         G                      C    G
Deep as the bottom of the deep blue sea
C                             G                  C    G
Warm as the feeling when your holding me
C                                   G            C    G
Im dreaming that this love is gonna set us free
C                             G       
Im floating on a glimpse of a memory



(Ascending Strings): C  D  E  F  G Bb C D   (UP octave)



F        F    F# G     G  G#  
Take me, Take me higher
Bb                              F
It could be so easy to light my fire

(Bass notes):  A G# G F    (Big E string 5-4-3-1)

         F        F    F# G     G  G#
Wont you take me? Take me higher
Bb                              F          F  F#  G
It could be so easy to light my fireeeeeeeeee.....


........Keep repeating till end...............
comments
We did not receive enough feedback on this tab! Please rate:
print report bad tab
1 2 3 4 5
I want to post or [tab]
guest
You may want to rate the tab now too:
select rating
Please do not post tabs as comments. Select "correction" instead!