Oops, an error
Loading. Please wait.

El Baile Del Gorila Tab

by Melody
444 views 15 this week
no commentswrite comment
1 2 3 4 5
3 more votes to show rating
add to favorites
launch autoscroll
font size
0
reset
how to read this tab
guitar tuner
Autoscroll
slow
fast
+/-
esc
set tempo
stop
Este es el intro de la canción

          A7            Dm         A7         Dm
e|----0-1|3-0-3-0-1-3-6|5-5--3-5-6|3-3-3-5-6-|5
B|2-3----|-------------|-6-6------|-5-5------|-
G|-------|-------------|----------|----------|-
D|-------|-------------|----------|----------|-
A|-------|-------------|----------|----------|-
E|-------|-------------|----------|----------|-

          A7        Dm         A7             Dm
e|6-5-3--|3-3-3-5-6|5-5-5-6--5|3---5-5-3-1-0-|-
B|------5|-5-5-----|-6-6------|--5-----------|3
G|-------|---------|----------|--------------|-
D|-------|---------|----------|--------------|-
A|-------|---------|----------|--------------|-
E|-------|---------|----------|--------------|-
Suggest correction
Give kudos to tab author, rate the tab!
1 2 3 4 5
comments
print report bad tab
guest
You may want to rate the tab now too:
select rating
Wanna post a correction for this tab? Suggest correction