Oops, an error
Loading. Please wait.

Pretend I Dont Exist chords

16 views 9 this week
no commentswrite comment
1 2 3 4 5
3 more votes to show rating
add to favorites
×
Save as Personal and add changes to this tab that will be seen only by you. Learn more ›
×
You can save this tab as Personal to edit and correct it or add notes. All changes will be seen only by you. Learn more »
launch autoscroll
font size
0
reset
transpose
0
reset
simplify chords
display chords
guitar tuner
edit
Autoscroll
slow
fast
+/-
esc
set tempo
stop
Strumming
There is no strumming pattern for this song yet. and get +5 IQ
[Chords]
C6sus2:      x 3 x 2 3 3 || 8 x 7 7 8 x  (Intro || Verse/Chorus)
Dmadd11/F:   1 x x 2 3 3
G9:          x 10 9 10 10 x
G7sus2:      x x 5 7 6 5
D#dim7:      x 6 7 5 7 x
C/E:         x 7 x 5 8 8
Fm6:         x 8 x 7 9 8
Ddim/F:      x 8 x 7 9 10
Dm7:         x 5 x 5 6 5

[Intro]
C6sus2 Dmadd11/F C6sus2 Dmadd11/F (x4)

[Verse 1]
C6sus2      G9
I've waited before
D#dim7              C/E
At the foot of your door
       Fm6         Ddim/F
Like a lost little doll
C6sus2               D#dim7
I waited for love to call
Dm7
But got not at all

[Verse 2]
C6sus2      G9
So I should stay
D#dim7           C/E
While you wander away
         Fm6          Ddim/F
From the warmth of my lips
C6sus2                D#dim7
Just try to forget my kiss
Dm7             C6sus2
Pretend I don't exist

[Chorus]
C6sus2                  G9
I don't think you could give
    G9          C6sus2
Any good reason why
C6sus2                G9
I should stay in your arms
G9                    Fm6
So I think you should try to forget
C6sus2
How good it felt
Fm6                 C6sus2
Try not to reminisce
Fm6              C6sus2  D#dim7
Try to forget my kiss
Dm7             C6sus2
Pretend I don't exist

[Instrumental]
       C6sus2      G9         D#dim7  C/E       
Fm6       Ddim/F
E|-----------------------------------------------------------|
B|-----------------------------------------------------------|
G|-----------------------------------------------9-----------|
D|--7--5--------5--7-----5--7--9--7--9--10-9--10----12-10----|
A|-----------7--------------------------------------------11-|
E|-----------------------------------------------------------|

       C6sus2       D#dim7  Dm7
E|-----------------------------------------------------------|
B|-----------------------------------------------8-----------|
G|--9--7-----9--7-----------------------------------9--7-----|
D|--------10-------10-9-----7--7--5--7--5-----------------10-|
A|-----------------------------------------------------------|
E|-----------------------------------------------------------|

    C6sus2   G9         D#dim7 C/E      Fm6 
              Ddim/F
E|-----------------------------------------------------------|
B|--------------------------------------5--6--8--9--8--------|
G|--------------------------------5--7-----------------10----|
D|--5-----5--7-----5--7--9--7--9--------------------------10-|
A|-----7-----------------------------------------------------|
E|-----------------------------------------------------------|

           C6sus2           D#dim7           Dm7          C6sus2
E|-----------------------------------------------------------|
B|-----------------------------------------------------------|
G|--8--7-----9-----------------------------------------7-----|
D|--------10-------10-5-----7--9-----------9--9--9--10----10-|
A|-----------------------------------------------------------|
E|-----------------------------------------------------------|

[Chorus]
C6sus2                  G9
I don't think you could give
    G9          C6sus2
Any good reason why
C6sus2                G9
I should stay in your arms
G9                    Fm6
So I think you should try to forget
C6sus2
How good it felt
Fm6                 C6sus2
Try not to reminisce
Fm6              C6sus2  D#dim7
Try to forget my kiss
Dm7             C6sus2
Pretend I don't exist
Suggest correction
Creating personal tab
Creating personal tab
You can edit any tab online and save it as your Personal.

You can edit, replace or remove any tab part or add personal notes – all changes will be seen only by you.

Personal tabs can be accessed anytime from any device, even offline.
Learn more »
Give kudos to tab author, rate the tab!
1 2 3 4 5
comments
print report bad tab
guest
You may want to rate the tab now too:
select rating
Wanna post a correction for this tab? Suggest correction