Oops, an error
Loading. Please wait.

Who Will Comfort Me Tab

version 1
version 1

Whole song

Interactive

19,978 views 54 this week
no commentswrite comment
1 2 3 4 5
excellent!
x 6
add to favorites
launch autoscroll
font size
0
reset
how to read this tab
guitar tuner
Tab Pro tools
  • play this tab
  • loop segment
  • change instrument
  • show fretboard
  • metronome
×
Best way to learn
"Who Will Comfort Me"
Autoscroll
slow
fast
+/-
esc
set tempo
stop
Contributor
Difficulty
novice
-----------------------------------------------------------------
Who will comfort me - Melody Gardot
-----------------------------------------------------------------
Tabbed by: Klaas
Email:klaasvandeloock@hotmail.com

Tuning: normal

Two fingers on her left hand never switch snares, those are:
e: /
B: pink
G: /
D: /
A: /
E: middle finger

I tabbed this out from this version: 
http://youtu.be/VQm3RZx3YWk

INTRO
e|-----x-----|
B|-----x--3--|
G|-----x--0--|
D|-----x--3--| 4x times
A|-----x-----|
E|--3--x-----|

e|-----------------------------------------------------------------|
B|----3-------3-------3-------3-----------3--------------3---------|
G|----0---0---0---0---0---0---0---0---0---3--0---0---0---3--0---0--| 2x
D|------3-------3-------2-------2-------0-----0h3------0-----0h3---|
A|-----------------------------------------------------------------|
E|--3-------3-------3-------3-------3--------------3---------------|

VERSE (play this 2x times)
e|-------------------------------------------------------------------|
B|----3-------3-------3-------3-------3-------3-------3-------3------|
G|----0---0---0---0---0---0---0---0---0---0---0---0---0---0---0---0--| 
D|------3-------3-------2-------2-------1-------1-------0-------0----|
A|-------------------------------------------------------------------|
E|--3-------3-------3-------3-------3-------3-------3-------3--------|

e|-----------------------------------------------------------------|
B|----3-------3-------3-------3-----------3--------------3---------|
G|----0---0---0---0---0---0---0---0---0---3--0---0---0---3--0---0--| 
D|------3-------3-------2-------2-------0-----0h3------0-----0h3---|
A|-----------------------------------------------------------------|
E|--3-------3-------3-------3-------3--------------3---------------|

REFR (dejdabendejda...) (play this 2x times)
e|---------------------------------------------------------------|
B|----1-------1-------1-----1-2---3-------3-------3-------3------|
G|----0---0---0---0---0---0-0-----0---0---0---0---0---0---0---0--|
D|------0-------0-------0-----------3-------3-------3-------3----|
A|---------------------------------------------------------------|
E|--1-------1-------1-------1-2-3-------3-------3-------3--------|

VERSE
REFR
SOLO-(guitar is same is in verse)
VERSE
OUTRO-(guitar is same is in verse)

| /  slide up
| \  slide down
| h  hammer-on
| p  pull-off
| ~  vibrato
| +  harmonic
| x  Mute note
comments
print report bad tab
I want to post or [tab]
guest
You may want to rate the tab now too:
select rating
Please do not post tabs as comments. Select "correction" instead!