Oops, an error
Loading. Please wait.

Who Will Comfort Me Tab

version 1
version 1

Whole song

Interactive

21,298 views 36 this week
no commentswrite comment
1 2 3 4 5
x 7
add to favorites
launch autoscroll
font size
0
reset
how to read this tab
guitar tuner
Autoscroll
slow
fast
+/-
esc
set tempo
stop
Help us to improve Ultimate-Guitar.com Take our survey!
×
Author
Difficulty
novice
-----------------------------------------------------------------
Who will comfort me - Melody Gardot
-----------------------------------------------------------------
Tabbed by: Klaas
Email:klaasvandeloock@hotmail.com

Tuning: normal

Two fingers on her left hand never switch snares, those are:

e: /
B: pink
G: /
D: /
A: /
E: middle finger

I tabbed this out from this version: 
http://youtu.be/VQm3RZx3YWk


[Intro]

e|-----x-----|
B|-----x--3--|
G|-----x--0--|
D|-----x--3--|
A|-----x-----|
E|--3--x-----|(x4)

e|-----------------------------------------------------------------|
B|----3-------3-------3-------3-----------3--------------3---------|
G|----0---0---0---0---0---0---0---0---0---3--0---0---0---3--0---0--|
D|------3-------3-------2-------2-------0-----0h3------0-----0h3---|
A|-----------------------------------------------------------------|
E|--3-------3-------3-------3-------3--------------3---------------|(x2)


[Verse]

e|-------------------------------------------------------------------|
B|----3-------3-------3-------3-------3-------3-------3-------3------|
G|----0---0---0---0---0---0---0---0---0---0---0---0---0---0---0---0--| 
D|------3-------3-------2-------2-------1-------1-------0-------0----|
A|-------------------------------------------------------------------|
E|--3-------3-------3-------3-------3-------3-------3-------3--------|(x2)

e|-----------------------------------------------------------------|
B|----3-------3-------3-------3-----------3--------------3---------|
G|----0---0---0---0---0---0---0---0---0---3--0---0---0---3--0---0--| 
D|------3-------3-------2-------2-------0-----0h3------0-----0h3---|
A|-----------------------------------------------------------------|
E|--3-------3-------3-------3-------3--------------3---------------|


[Refrain]

(dejdabendejda...) 
e|---------------------------------------------------------------|
B|----1-------1-------1-----1-2---3-------3-------3-------3------|
G|----0---0---0---0---0---0-0-----0---0---0---0---0---0---0---0--|
D|------0-------0-------0-----------3-------3-------3-------3----|
A|---------------------------------------------------------------|
E|--1-------1-------1-------1-2-3-------3-------3-------3--------|(x2)


[Verse]
[Refrain]
[Solo]
(guitar is same is in verse)
[Verse]
[Outro]
(guitar is same is in verse)


************************************

| x  Dead note
| h  Hammer-on

************************************
Suggest correction
comments
print report bad tab
guest
You may want to rate the tab now too:
select rating
Wanna post a correction for this tab? Suggest correction