Oops, an error
Loading. Please wait.

Endless Shore Tab

1,912 views 21 this week
1 commentread comment
1 2 3 4 5
excellent!
x 5
add to favorites
launch autoscroll
font size
0
reset
how to read this tab
guitar tuner
Tab Pro tools
  • play this tab
  • loop segment
  • change instrument
  • show fretboard
  • metronome
×
Best way to learn
"Endless Shore"
Autoscroll
slow
fast
+/-
esc
set tempo
stop
Contributor
Difficulty
novice
                    Melody's Echo Chamber - Endless Shore
                       from her 2012 self-titled album

Phased guitar intro:
e|-5-5-5-5-5-5-5-5-5-5-5-5-5-5-5-5-|
B|-7-7-7-7-7-7-7-7-7-7-7-7-7-7-7-7-|
G|-7-7-7-7-7-7-7-7-6-6-6-6-6-6-6-6-|
D|-7-7-7-7-7-7-7-7-7-7-7-7-7-7-7-7-|
A|-5-5-5-5-5-5-5-5-5-5-5-5-5-5-5-5-|
E|---------------------------------|


Pre-verse:
Guitar 1:
e|-7-7-7-7-7-7-7-7-7-7-7-7-7-7-7-7-5-5-5-5-5-5-5-5-5-5-5-5-5-5-5-5-|
B|-9-9-9-9-9-9-9-9-9-9-9-9-9-9-9-9-7-7-7-7-7-7-7-7-7-7-7-7-7-7-7-7-|
G|-9-9-9-9-9-9-9-9-9-9-9-9-9-9-9-9-7-7-7-7-7-7-7-7-6-6-6-6-6-6-6-6-| x2
D|-9-9-9-9-9-9-9-9-9-9-9-9-9-9-9-9-7-7-7-7-7-7-7-7-7-7-7-7-7-7-7-7-|
A|-7-7-7-7-7-7-7-7-7-7-7-7-7-7-7-7-5-5-5-5-5-5-5-5-5-5-5-5-5-5-5-5-|
E|-----------------------------------------------------------------|

Guitar 2 plays these arpeggios:
e|-7-----7-----7-----9-----9----------------------------------|
B|---9-----9-----9-----9-----9-------7----7----7----7----7----|
G|-----9-----9-----9-----9-----9---9----9----9----9----9---9--| x2
D|------------------------------------------------------------|
A|------------------------------------------------------------|
E|------------------------------------------------------------|


Verse:
"Here we go again, back to the start,
I am now the one that breaks your heart,
Always try to hold, but now I'm tired"
Guitar 1:
e|-7-7-7-7-7-7-7-7-7-7-7-7-7-7-7-7-5-5-5-5-5-5-5-5-5-5-5-5-5-5-5-5-|
B|-9-9-9-9-9-9-9-9-9-9-9-9-9-9-9-9-7-7-7-7-7-7-7-7-7-7-7-7-7-7-7-7-|
G|-9-9-9-9-9-9-9-9-9-9-9-9-9-9-9-9-7-7-7-7-7-7-7-7-6-6-6-6-6-6-6-6-| x3
D|-9-9-9-9-9-9-9-9-9-9-9-9-9-9-9-9-7-7-7-7-7-7-7-7-7-7-7-7-7-7-7-7-|
A|-7-7-7-7-7-7-7-7-7-7-7-7-7-7-7-7-5-5-5-5-5-5-5-5-5-5-5-5-5-5-5-5-|
E|-----------------------------------------------------------------|

Guitar 2 plays these arpeggios:
e|-7-----7-----7-----9-----9----------------------------------|
B|---9-----9-----9-----9-----9-------7----7----7----7----7----|
G|-----9-----9-----9-----9-----9---9----9----9----9----9---9--| x3
D|------------------------------------------------------------|
A|------------------------------------------------------------|
E|------------------------------------------------------------|


Chorus:
"Here I go, the endless shore,
Couldn't say if I was wrong"
Guitar 1:
e|-7----------------5----------------|
B|-7----------------5----------------|
G|-7----------------6----------------| x2
D|-9----------------7----------------|
A|-9----------------7----------------|
E|-7----------------5----------------|

Guitar 2 plays these arpeggios:
e|---------------------------------------------------------------|
B|-7-----7-----7-----7-----7------5-----5-----5-----5-----5------|
G|---7-----7-----7-----7-----7------6-----6-----6-----6-----6----| x2
D|-----9-----9-----9-----9-----9------7-----7-----7-----7-----7--|
A|---------------------------------------------------------------|
E|---------------------------------------------------------------|


Echoey guitar bit:
e|-7-7-7-7-|
B|-9-9-9-9-|
G|-9-9-9-9-|
D|-9-9-9-9-|
A|-7-7-7-7-|
E|---------|


Synth section:
Guitar 1 plays this staccato rhythm:
e|-7-7.--7-7-7.--7-7-7.--7-7-7.--7-5-5.--5-5-5.--5-5-5.--5-5-5.--|
B|-9-9.--9-9-9.--9-9-9.--9-9-9.--9-7-7.--7-7-7.--7-7-7.--7-7-7.--|
G|-9-9.--9-9-9.--9-9-9.--9-9-9.--9-7-7.--7-7-7.--7-6-6.--6-6-6.--| x2
D|-9-9.--9-9-9.--9-9-9.--9-9-9.--9-7-7.--7-7-7.--7-7-7.--7-7-7.--|
A|-7-7.--7-7-7.--7-7-7.--7-7-7.--7-5-5.--5-5-5.--5-5-5.--5-5-5.--|
E|---------------------------------------------------------------|

Synth plays this lead:
e|---------9--7---------9----------------------9--7---------9--------------|
B|----7--9-----------10----9-7------------7--9-----------10----9-7----9----|
G|-9------------------------------7----9-----------------------------------|
D|-------------------------------------------------------------------------|
A|-------------------------------------------------------------------------|
E|-------------------------------------------------------------------------|


Verse:
"Here I go again, back to my silence,
I was such a fool to think you'd follow"
Guitar 1:
e|-7-7-7-7-7-7-7-7-7-7-7-7-7-7-7-7-5-5-5-5-5-5-5-5-5-5-5-5-5-5-5-5-|
B|-9-9-9-9-9-9-9-9-9-9-9-9-9-9-9-9-7-7-7-7-7-7-7-7-7-7-7-7-7-7-7-7-|
G|-9-9-9-9-9-9-9-9-9-9-9-9-9-9-9-9-7-7-7-7-7-7-7-7-6-6-6-6-6-6-6-6-| x2
D|-9-9-9-9-9-9-9-9-9-9-9-9-9-9-9-9-7-7-7-7-7-7-7-7-7-7-7-7-7-7-7-7-|
A|-7-7-7-7-7-7-7-7-7-7-7-7-7-7-7-7-5-5-5-5-5-5-5-5-5-5-5-5-5-5-5-5-|
E|-----------------------------------------------------------------|

Guitar 2 plays these arpeggios:
e|-7-----7-----7-----9-----9----------------------------------|
B|---9-----9-----9-----9-----9-------7----7----7----7----7----|
G|-----9-----9-----9-----9-----9---9----9----9----9----9---9--| x2
D|------------------------------------------------------------|
A|------------------------------------------------------------|
E|------------------------------------------------------------|


Chorus:
"Here I go, the endless shore,
Couldn't say if I was wrong"
Guitar 1 (guitar 2 sort of backs up guitar 2
and has somewhat of a strumming pattern):
e|-7----------------5----------------|
B|-7----------------5----------------|
G|-7----------------6----------------| x2
D|-9----------------7----------------|
A|-9----------------7----------------|
E|-7----------------5----------------|


Echoey guitar bit:
e|-7-7-7-7-|
B|-9-9-9-9-|
G|-9-9-9-9-|
D|-9-9-9-9-|
A|-7-7-7-7-|
E|---------|


Transition:
Guitar 1 (incoporating the echoey bit at the end this time):
e|-7----------------5----------------9-9-9-9-|
B|-7----------------5----------------9-9-9-9-|
G|-7----------------6----------------9-9-9-9-| x2
D|-9----------------7----------------9-9-9-9-|
A|-9----------------7----------------7-7-7-7-|
E|-7----------------5------------------------|

Guitar 2 plays these arpeggios:
e|------------------------------------------------------------|
B|---7----7----7----7----7-----5-----5-----5-----5-----5------|
G|-7----7----7----7----7----7----6-----6-----6-----6-----6----| x2
D|---------------------------------7-----7-----7-----7-----7--|
A|------------------------------------------------------------|
E|------------------------------------------------------------|


Back to staccato rhythm:
Guitar 1:
e|-7-7.--7-7-7.--7-7-7.--7-7-7.--7-5-5.--5-5-5.--5-5-5.--5-5-5.--|
B|-9-9.--9-9-9.--9-9-9.--9-9-9.--9-7-7.--7-7-7.--7-7-7.--7-7-7.--|
G|-9-9.--9-9-9.--9-9-9.--9-9-9.--9-7-7.--7-7-7.--7-6-6.--6-6-6.--| x2
D|-9-9.--9-9-9.--9-9-9.--9-9-9.--9-7-7.--7-7-7.--7-7-7.--7-7-7.--|
A|-7-7.--7-7-7.--7-7-7.--7-7-7.--7-5-5.--5-5-5.--5-5-5.--5-5-5.--|
E|---------------------------------------------------------------|


Bridge:
"Here is my final thought, is it insane we saw, he was the honest one, 
I couldn't give him hope, he was the silent soul, he was the honest one"
Synth plays this slidy sort of progression:
e|-----------------------------------------------------|
B|-----------------------------------------------------|
G|-9----9/11\9/11\9--9--/11\9----9/11\9/11\9-----------| x2
D|--------------------------------------------9--------|
A|-7----7/-9\7/-9\7--7--/-9\7----7/-9\7/-9\7-----------|
E|--------------------------------------------7--------|

"Can we rewind this, here I..."
e|------------------------|
B|------------------------|
G|-9--/11\9----9/11\9/11--|
D|------------------------|
A|-7--/-9\7----7/-9\7/-9--|
E|------------------------|


Verse:
"...go again, red sign, that awful cycle,
Couldn't accept that you already forgot"
Guitar 1:
e|-7-7-7-7-7-7-7-7-7-7-7-7-7-7-7-7-5-5-5-5-5-5-5-5-5-5-5-5-5-5-5-5-|
B|-9-9-9-9-9-9-9-9-9-9-9-9-9-9-9-9-7-7-7-7-7-7-7-7-7-7-7-7-7-7-7-7-|
G|-9-9-9-9-9-9-9-9-9-9-9-9-9-9-9-9-7-7-7-7-7-7-7-7-6-6-6-6-6-6-6-6-| x2
D|-9-9-9-9-9-9-9-9-9-9-9-9-9-9-9-9-7-7-7-7-7-7-7-7-7-7-7-7-7-7-7-7-|
A|-7-7-7-7-7-7-7-7-7-7-7-7-7-7-7-7-5-5-5-5-5-5-5-5-5-5-5-5-5-5-5-5-|
E|-----------------------------------------------------------------|

Guitar 2 plays the staccato rhythm in the background
e|-7-7.--7-7-7.--7-7-7.--7-7-7.--7-5-5.--5-5-5.--5-5-5.--5-5-5.--|
B|-9-9.--9-9-9.--9-9-9.--9-9-9.--9-7-7.--7-7-7.--7-7-7.--7-7-7.--|
G|-9-9.--9-9-9.--9-9-9.--9-9-9.--9-7-7.--7-7-7.--7-6-6.--6-6-6.--| x2
D|-9-9.--9-9-9.--9-9-9.--9-9-9.--9-7-7.--7-7-7.--7-7-7.--7-7-7.--|
A|-7-7.--7-7-7.--7-7-7.--7-7-7.--7-5-5.--5-5-5.--5-5-5.--5-5-5.--|
E|---------------------------------------------------------------|


Outro:
Synth plays this lead:
e|---------9--7---------9----------------------9--7---------9--------------|
B|----7--9-----------10----9-7------------7--9-----------10----9-7----9----|
G|-9------------------------------7----9-----------------------------------|
D|-------------------------------------------------------------------------|
A|-------------------------------------------------------------------------|
E|-------------------------------------------------------------------------|


Guitar 1 starts playing the staccato rhythm again:
e|-7-7.--7-7-7.--7-7-7.--7-7-7.--7-5-5.--5-5-5.--5-5-5.--5-5-5.--|
B|-9-9.--9-9-9.--9-9-9.--9-9-9.--9-7-7.--7-7-7.--7-7-7.--7-7-7.--|
G|-9-9.--9-9-9.--9-9-9.--9-9-9.--9-7-7.--7-7-7.--7-6-6.--6-6-6.--| x2
D|-9-9.--9-9-9.--9-9-9.--9-9-9.--9-7-7.--7-7-7.--7-7-7.--7-7-7.--|
A|-7-7.--7-7-7.--7-7-7.--7-7-7.--7-5-5.--5-5-5.--5-5-5.--5-5-5.--|
E|---------------------------------------------------------------|

Guitar 2 plays this rhythm in the background:
e|-7-7-7-7-7-7-7-7-7-7-7-7-7-7-7-7-5-5-5-5-5-5-5-5-5-5-5-5-5-5-5-5-|
B|-9-9-9-9-9-9-9-9-9-9-9-9-9-9-9-9-7-7-7-7-7-7-7-7-7-7-7-7-7-7-7-7-|
G|-9-9-9-9-9-9-9-9-9-9-9-9-9-9-9-9-7-7-7-7-7-7-7-7-6-6-6-6-6-6-6-6-| x2
D|-9-9-9-9-9-9-9-9-9-9-9-9-9-9-9-9-7-7-7-7-7-7-7-7-7-7-7-7-7-7-7-7-|
A|-7-7-7-7-7-7-7-7-7-7-7-7-7-7-7-7-5-5-5-5-5-5-5-5-5-5-5-5-5-5-5-5-|
E|-----------------------------------------------------------------|

Synth plays this lead:
e|---------9--7---------9----------------------9--7---------9--------------|
B|----7--9-----------10----9-7------------7--9-----------10----9-7----9----|
G|-9------------------------------7----9-----------------------------------|
D|-------------------------------------------------------------------------|
A|-------------------------------------------------------------------------|
E|-------------------------------------------------------------------------|


Synth moves up an octave:
Guitar 1:
e|-7-7.--7-7-7.--7-7-7.--7-7-7.--7-5-5.--5-5-5.--5-5-5.--5-5-5.--|
B|-9-9.--9-9-9.--9-9-9.--9-9-9.--9-7-7.--7-7-7.--7-7-7.--7-7-7.--|
G|-9-9.--9-9-9.--9-9-9.--9-9-9.--9-7-7.--7-7-7.--7-6-6.--6-6-6.--| x2
D|-9-9.--9-9-9.--9-9-9.--9-9-9.--9-7-7.--7-7-7.--7-7-7.--7-7-7.--|
A|-7-7.--7-7-7.--7-7-7.--7-7-7.--7-5-5.--5-5-5.--5-5-5.--5-5-5.--|
E|---------------------------------------------------------------|

Guitar 2:
e|-7-7-7-7-7-7-7-7-7-7-7-7-7-7-7-7-5-5-5-5-5-5-5-5-5-5-5-5-5-5-5-5-|
B|-9-9-9-9-9-9-9-9-9-9-9-9-9-9-9-9-7-7-7-7-7-7-7-7-7-7-7-7-7-7-7-7-|
G|-9-9-9-9-9-9-9-9-9-9-9-9-9-9-9-9-7-7-7-7-7-7-7-7-6-6-6-6-6-6-6-6-| x2
D|-9-9-9-9-9-9-9-9-9-9-9-9-9-9-9-9-7-7-7-7-7-7-7-7-7-7-7-7-7-7-7-7-|
A|-7-7-7-7-7-7-7-7-7-7-7-7-7-7-7-7-5-5-5-5-5-5-5-5-5-5-5-5-5-5-5-5-|
E|-----------------------------------------------------------------|

Synth:
e|------------21--19------17-21----------------------------21--19------17-21-----------------|
B|-----19--21--------------------21-19--------------19--21--------------------21-19----21----|
G|-21-------------------------------------19----21-------------------------------------------|
D|-------------------------------------------------------------------------------------------|
A|-------------------------------------------------------------------------------------------|
E|-------------------------------------------------------------------------------------------|


Synth moves up another octave:
Guitar 1:
e|-7-7.--7-7-7.--7-7-7.--7-7-7.--7-5-5.--5-5-5.--5-5-5.--5-5-5.--|
B|-9-9.--9-9-9.--9-9-9.--9-9-9.--9-7-7.--7-7-7.--7-7-7.--7-7-7.--|
G|-9-9.--9-9-9.--9-9-9.--9-9-9.--9-7-7.--7-7-7.--7-6-6.--6-6-6.--| x2
D|-9-9.--9-9-9.--9-9-9.--9-9-9.--9-7-7.--7-7-7.--7-7-7.--7-7-7.--|
A|-7-7.--7-7-7.--7-7-7.--7-7-7.--7-5-5.--5-5-5.--5-5-5.--5-5-5.--|
E|---------------------------------------------------------------|

Guitar 2:
e|-7-7-7-7-7-7-7-7-7-7-7-7-7-7-7-7-5-5-5-5-5-5-5-5-5-5-5-5-5-5-5-5-|
B|-9-9-9-9-9-9-9-9-9-9-9-9-9-9-9-9-7-7-7-7-7-7-7-7-7-7-7-7-7-7-7-7-|
G|-9-9-9-9-9-9-9-9-9-9-9-9-9-9-9-9-7-7-7-7-7-7-7-7-6-6-6-6-6-6-6-6-| x2
D|-9-9-9-9-9-9-9-9-9-9-9-9-9-9-9-9-7-7-7-7-7-7-7-7-7-7-7-7-7-7-7-7-|
A|-7-7-7-7-7-7-7-7-7-7-7-7-7-7-7-7-5-5-5-5-5-5-5-5-5-5-5-5-5-5-5-5-|
E|-----------------------------------------------------------------|

Synth - because there aren't enough frets to go up another octave, you will have to use a
pitch shift/whammy pedal if you want to go up that extra octave, otherwise you will have
to play the same octave again. You could also start off the synth outro 2 octaves lower
and end up at the same octave that is tabbed out here:
e|------------21--19------17-21----------------------------21--19------17-21-----------------|
B|-----19--21--------------------21-19--------------19--21--------------------21-19----21----|
G|-21-------------------------------------19----21-------------------------------------------|
D|-------------------------------------------------------------------------------------------|
A|-------------------------------------------------------------------------------------------|
E|-------------------------------------------------------------------------------------------|


Synth moves up another octave:
Guitar 1:
e|-7-7.--7-7-7.--7-7-7.--7-7-7.--7-5-5.--5-5-5.--5-5-5.--5-5-5.--|
B|-9-9.--9-9-9.--9-9-9.--9-9-9.--9-7-7.--7-7-7.--7-7-7.--7-7-7.--|
G|-9-9.--9-9-9.--9-9-9.--9-9-9.--9-7-7.--7-7-7.--7-6-6.--6-6-6.--| x2
D|-9-9.--9-9-9.--9-9-9.--9-9-9.--9-7-7.--7-7-7.--7-7-7.--7-7-7.--|
A|-7-7.--7-7-7.--7-7-7.--7-7-7.--7-5-5.--5-5-5.--5-5-5.--5-5-5.--|
E|---------------------------------------------------------------|

Guitar 2:
e|-7-7-7-7-7-7-7-7-7-7-7-7-7-7-7-7-5-5-5-5-5-5-5-5-5-5-5-5-5-5-5-5-|
B|-9-9-9-9-9-9-9-9-9-9-9-9-9-9-9-9-7-7-7-7-7-7-7-7-7-7-7-7-7-7-7-7-|
G|-9-9-9-9-9-9-9-9-9-9-9-9-9-9-9-9-7-7-7-7-7-7-7-7-6-6-6-6-6-6-6-6-| x2
D|-9-9-9-9-9-9-9-9-9-9-9-9-9-9-9-9-7-7-7-7-7-7-7-7-7-7-7-7-7-7-7-7-|
A|-7-7-7-7-7-7-7-7-7-7-7-7-7-7-7-7-5-5-5-5-5-5-5-5-5-5-5-5-5-5-5-5-|
E|-----------------------------------------------------------------|

Synth - once again you'll have to use a pitch shift/whammy pedal if you
want to go up that extra octave, this time set to 2 octaves up. Or do the 2
octaves lower thing and finish it off here:
e|------------21--19------17-21----------------------------21--19------17-21---------|
B|-----19--21--------------------21-19--------------19--21--------------------21-19--|
G|-21-------------------------------------19----21-----------------------------------|
D|-----------------------------------------------------------------------------------|
A|-----------------------------------------------------------------------------------|
E|-----------------------------------------------------------------------------------|

Fade out.


************************************

| /   slide up
| \   slide down
| h   hammer-on
| p   pull-off
| ~   vibrato
| +   harmonic
| x   Mute note
| .   staccato
| b   Bend
| pb  Pre-bend
| br  Bend release
| pbr Pre-bend release
| brb Bend release bend

************************************
comments
print report bad tab
1 comment total.
0 reply
Felbi123 wrote on May 1 2013, 05:47 am

awesome tab!

I want to post or [tab]
guest
You may want to rate the tab now too:
select rating
Please do not post tabs as comments. Select "correction" instead!