Oops, an error
Loading. Please wait.

I Follow You Bass Tab

3,168 views 24 this week
1 commentread comment
1 2 3 4 5
excellent!
x 6
add to favorites
launch autoscroll
font size
0
reset
guitar tuner
Autoscroll
slow
fast
+/-
esc
set tempo
stop
Help us to improve Ultimate-Guitar.com Take our survey!
×
Author
Melody's Echo Chamber //// I Follow You

Bass Tab


[0:38] Chorus1
G||------------7--------------------9---------------|
D||--------5/7---7-5------------7/9---9-7--7-9--10\-|
A||-0/5--5-----------------7--7---------------------|
E||------------------3-5-7--------------------------|

G||-------------------------------------------------|
D||-----5h7-5-5h7-5---------------------------------|
A||-5----------------8-7----------------------------|
E||----------------------5-7-8----8--8-7--5-----\3--|

G||---------7h9-p7----------12-------------9h11-------------|
D||-----5/7-----------10/12----12\-----7/9------9\7--7\5/7\-|
A||-5--------------10---------------7-----------------------|
E||---------------------------------------------------------|

G||-7---7-7---------------------------------------------------|
D||---------10--9----9-9-9-7-9-10--9h10-9h10-9h10--9h10-9h10\-|
A||-----------------------------------------------------------|
E||-----------------------------------------------------------|


[1:26] Verse2
G||----------------5h7-5h7-5h7-----------------------------|
D||-3--3-------5--5---------------------------9h10-9h10-10-|
A||-----3--3-------------------7--7-7--7-7--7--------------|
E||--------------------------------------------------------|

[1:35] Chorus2
G||----------7--------------------9---------------|
D||------5/7---7-5------------7/9---9-7--7-9--10\-|
A||-5--5-----------------7--7---------------------|
E||----------------3-5-7--------------------------|

G||-------------------------------------------------|
D||-----5h7-5-5h7-5---------------------------------|
A||-5----------------8-7----------------------------|
E||----------------------5-7-8----8--8-7--5--5-7-8--|

G||---------7h9-p7----------12-------------9h11-------------|
D||-----5/7-----------10/12----12\-----7/9------9\7--7\5/7\-|
A||-5--------------10---------------7-----------------------|
E||---------------------------------------------------------|

G||-7---7-7---------------------------------------------------|
D||---------10--9----9-9-9-7-9-10--9h10-9h10-9h10--9h10-9h10\-|
A||-----------------------------------------------------------|
E||-----------------------------------------------------------|


[2:33] Verse3
G||----------------5h7-5h7-5h7-----------------------------|
D||-3--3-------5--5---------------------------9h10-9h10-10-|
A||-----3--3-------------------7--7-7--7-7--7--------------|
E||--------------------------------------------------------|

G||----------------5h7-5h7-5h7-----------------------------|
D||-3--3-------5--5----------------------------------------|
A||-----3--3-------------------7--7-7--7-7--7-7--5-5--7-7--|
E||--------------------------------------------------------|


[2:51] Chorus riff under Kevin parkers solooo... 
G||----------7--------------------9---------------|
D||------5/7---7-5------------7/9---9-7--7-9--10\-|
A||-5--5-----------------7--7---------------------|
E||----------------3-5-7--------------------------|

G||-------------------------------------------------|
D||-----5h7-5-5h7-5---------------------------------|
A||-5----------------8-7----------------------------|
E||----------------------5-7-8----8--8-7--5--5-7-8--|

G||---------7h9-p7----------12-------------9h11-------------|
D||-----5/7-----------10/12----12\-----7/9------9\7--7\5/7\-|
A||-5--------------10---------------7-----------------------|
E||---------------------------------------------------------|   

G||-7---7-7---------------------------------------------------| Fade
D||---------10--9----9-9-9-7-9-10--9h10-9h10-9h10--9h10-9h10\-| Out.. 
A||-----------------------------------------------------------|
E||-----------------------------------------------------------| 

Its not quite 100% accurate, but ENJOY! 
Suggest correction
What's this?
You can suggest a correction to this tab. Community and Mods will review your correction and vote to approve or reject it.
comments
print report bad tab
1 comment total.
0 reply
ASAPROACH 255 wrote on May 17 2015, 08:10 pm

great tab!

guest
You may want to rate the tab now too:
select rating
Please do not post tabs as comments. Select "correction" instead!