Oops, an error
Loading. Please wait.

I Follow You solo tab

1,129 views 6 this week
no commentswrite comment
1 2 3 4 5
3 more votes to show rating
add to favorites
×
Save as Personal and add changes to this tab that will be seen only by you. Learn more ›
×
You can save this tab as Personal to edit and correct it or add notes. All changes will be seen only by you. Learn more »
launch autoscroll
font size
0
reset
how to read this tab
guitar tuner
edit
Autoscroll
slow
fast
+/-
esc
set tempo
stop
Author
Difficulty
-------------------------------------------------------------------------------
                             I Follow You - Melody Echo Chamber
-------------------------------------------------------------------------------

Tabbed by: ADC2000/DT
E-mail: dyra.thorvaldsson@gmail.com

Tuning: Standard EBGDAE
Notes: So this was really hard to tab out. One thing that the guitarist does in
this song is he (Kevin Parker) puts on his reverb before his overdrive and fuzz.
That's what causes it to sound so broken and distorted. Given that, towards the
end it get's really really hard to hear what he plays but here is the main idea.

e|-12-12------------------------------------------------------------------------|
B|-------15-12-12---------------------------------------------------------------|
G|----------------14-12-------12----12-------------------------------14-12-14b14|
D|----------------------14-14----14----14-12-------12-14-12-------12------------|
A|-------------------------------------------14h15----------14h15---------------|
E|------------------------------------------------------------------------------|

e|------------13b13b13----------------------------------------------------------|
B|------------------------------------------------------------------------------|
G|14b14b14-12-------------------------------------------------------------------|
D|------------------------------------------------------------------------------|
A|------------------------------------------------------------------------------|
E|------------------------------------------------------------------------------|

Play the whole song with a heavy distortion and very slowly. Kevin draws this out
over 20 or so seconds, with it fading out in the second line of tab.

            
            
Suggest correction
Creating personal tab
Creating personal tab
You can edit any tab online and save it as your Personal.

You can edit, replace or remove any tab part or add personal notes – all changes will be seen only by you.

Personal tabs can be accessed anytime from any device, even offline.
Learn more »
Give kudos to tab author, rate the tab!
1 2 3 4 5
comments
print report bad tab
guest
You may want to rate the tab now too:
select rating
Wanna post a correction for this tab? Suggest correction