Oops, an error
Loading. Please wait.

I Follow You Tab

29,752 views 153 this week
4 commentsread comments
1 2 3 4 5
x 30
add to favorites
launch autoscroll
font size
0
reset
how to read this tab
guitar tuner
Autoscroll
slow
fast
+/-
esc
set tempo
stop
Author
Difficulty
Tuning
intermediate
E A D G B E
Melody's Echo Chamber is a project from Kevin Parker (Tame Impala) and Melody Prochet. I 
figured it out by ear so let me know if there are mistakes. Good luck playing this 
beautiful song.

Tuning: Standard

It starts with the main riff he plays through the whole song.

e|-----------------|-----------------|-----------------|-----------------|
B|-------6-------6-|-------5-------3-|-------5-------3-|-------1---------|
G|-----5-------4---|-----4-------2---|-----4-------2---|-----0---------0-|
D|---7-------7-----|---5-------3-----|---5-------5-----|---2-------2-3---|
A|-----------------|-----------------|-----------------|-----------------|
E|-----------------|-----------------|-----------------|-----------------|

The chorus is played in chords and goes like this. The chorus is played in this order: 
Pattern 1 - Pattern 2 - Pattern 1 - Pattern 3

Pattern 1
e|---1-1-1-1---3-3-3-3---0-0-0-0---0-0-0-0--------------------|
B|---3-3-3-3---3-3-3-3---0-0-0-0---1-1-1-1--------------------|
G|---2-2-2-2---0-0-0-0---0-0-0-0---2-2-2-2--------------------|
D|---0-0-0-0---0-0-0-0---2-2-2-2---2-2-2-2--------------------|
A|-------------2-2-2-2---2-2-2-2---0-0-0-0--------------------|
E|-------------3-3-3-3---0-0-0-0------------------------------|

Pattern 2
e|---1-1-1-1---3-3-3-3----------------------------------------|
B|---3-3-3-3---3-3-3-3---1-1-1-1---1-1-1-1--------------------|
G|---2-2-2-2---0-0-0-0---0-0-0-0---2-2-2-2--------------------|
D|---0-0-0-0---0-0-0-0---2-2-2-2---2-2-2-2--------------------|
A|-------------2-2-2-2---3-3-3-3---0-0-0-0--------------------|
E|-------------3-3-3-3----------------------------------------|

Pattern 3 is the same as Patern 2 except you don't play the Amin at the end.

This is basically the whole song. Enjoy!

http://www.facebook.com/MelodysEchoChamber
Suggest correction
comments
print report bad tab
4 comments total. Showing first comments.
+2 reply
Banool 10 Aug 07, 2014 03:34 AM

For pattern 3, instead of playing the Am at the end, just play keep playing the C but pull off from the B string, like so:

Patern 3
e/---1-1-1-1---3-3-3-3----------------------------------------|
b/---3-3-3-3---3-3-3-3---1-1-1-0---1-1-1-0--------------------|
g/---2-2-2-2---0-0-0-0---0-0-0-0---0-0-0-0--------------------|
d/---0-0-0-0---0-0-0-0---2-2-2-2---2-2-2-2--------------------|
A/-------------2-2-2-2---3-3-3-3---3-3-3-3--------------------|
E/-------------3-3-3-3----------------------------------------|

0 reply
winikini- 10 Jan 12, 2015 06:10 PM

excuse me you don't know what is the configuration of amplifier ?

+1 reply
christianacosta94 10 Feb 01, 2017 02:16 PM, edited at 07:16 pm

kevin parker is not part of MEC, he just produced the album

guest
You may want to rate the tab now too:
select rating
Wanna post a correction for this tab? Suggest correction