Oops, an error
Loading. Please wait.

Contracorriente Chords

34 views 1 this week
no commentswrite comment
1 2 3 4 5
3 more votes to show rating
add to favorites
launch autoscroll
font size
0
reset
transpose
0
reset
simplify chords
display chords
guitar tuner
×
Best way to learn
"Contracorriente"
Autoscroll
slow
fast
+/-
esc
set tempo
stop
    A5                F5
      Nada crece a la sombra
      Del recuerdo de mi mente
      Nadie cree en nuestra historia
      Nadie habla nadie entiende, no, no
      El presente es ayer... no se...
      Y nos toca perder... no se...

    A5                      F5
      Todo sigue en nuestra contra
      Todo esta contracorriente
      Nadie sabe, nadie importa,
      Nadie habla, nadie entiende, no, no
      El presente es ayer... no se...
      Y nos toca perder... no se...

     A5        C5          G5         C5      F5
      Quien empuja al caer siempre quita la red... quien es quien...

           C           Am         G             F
      El camino a la gloria solo me lleva a tu piel
      El sabor de las derrotas me enseño lo que es perder
      Una vez, y otra vez, y otra vez...

      Nada crece a la sombra
      Del recuerdo de mi mente
      Al compas de la memoria
      Las mentiras siempre vuelven, no, no
      El albor es ayer... no se...
      Y nos toca perder... no se...

      Quien empuja la red...

      El camino a la gloria (2x)

    A5           C5           F5
      Rozando el fin, oigo su voz
      La conciencia otra vez grito
    A5           C5           F5
      Sube el telon, aun no acabo
      Queda voluntad, quedan ganas de empezar...

      Solo:

              C         Am        G         F
      ------|---------|---------|---------|-----------------
      ------|-8-5-----|---5-----|-8-5-----|-----------------
      ----5-|-----7-5-|-7---5-5-|-----7-5-|-7-5---------5---
      --5---|---------|---------|---------|-----7---5-7---7-
      ------|---------|---------|---------|-----------------
      ------|---------|---------|---------|-----------------

        C           Am                      G           F
      |-----------|-----------------------|-----------|-----
      |-----5-----|-----------------------|-----------|-7---
      |-5-----7-5-|-7-5-4---4-5-4---4-----|---5---5-7-|-----
      |-----------|---------------7---7-5-|-7---7-----|-----
      |-----------|-----------------------|-----------|-----
      |-----------|-----------------------|-----------|-----

      El camino a la gloria...
Suggest correction
Give kudos to tab author, rate the tab!
1 2 3 4 5
comments
print report bad tab
guest
You may want to rate the tab now too:
select rating
Wanna post a correction for this tab? Suggest correction