Oops, an error
Loading. Please wait.

Llenabas Mi Alma Chords

39 views 1 this week
no commentswrite comment
1 2 3 4 5
3 more votes to show rating
add to favorites
launch autoscroll
font size
0
reset
transpose
0
reset
simplify chords
display chords
guitar tuner
×
Best way to learn
"Llenabas Mi Alma"
Autoscroll
slow
fast
+/-
esc
set tempo
stop
Bajo (1 vez):

------------------------------------------------------------
------------------------------------------------------------
-------------0--0-----0-----2--2-----2-----0--0--0/2/0------
-0--0--0--3--------0-----0--------0-----0---------------3--0

Intro (2 veces):

Em  Am  Bm7  Am

Em                  Am
Abro mis ojos, sólo puedo ver 
Bm7                     Am
Negro el horizonte, azul el ayer 
Em                  Am
Las nubes asesinan un rayo de luz 
Bm7                     Am7       D      G
La magia se ha marchado porque no estás tú

G           Bm7
Llenabas mi alma
Am7            D
Llenabas mi alma de claridad 
G           Bm7
Las luces se apagan
Am7            D         D7      Em
Las luces se apagan si tú no estás

Riff y silbido (2 veces)

Em  Am  Bm  Am

---------------------------------------
------3--5-----------------------------
-3/4-------3~--2-------2~--0--4--2--0--
--------------------------------------2
---------------------------------------
---------------------------------------

Em                     Am
Fotos del mañana en mi corazón
Bm7                     Am
El sol las ha velado, y a ti te borró 
Em                     Am
Una sombra negra viene tras de mí
Bm7                     Am7       D      G
Diciéndome al oído lo lejos que estoy de ti 

G           Bm7
Llenabas mi alma 
Am7            D
Llenabas mi alma de claridad 
G           Bm7
Las luces se apagan
Am7            D         D7
Las luces se apagan cuando no estás 

G           Bm7
Llenabas mi alma 
Am7            D
Llenabas mi alma de claridad 
G           Bm7
Las luces se apagan
Am7            D         D7
          Se apagan cuando no estás 

G                 B7
Ya no escribo una buena canción 
Em              A7
Desde que tú no estás 

C              D         D7     Em  Am
Todo es tan absurdo si tú no estás oh no
C              D         D7     Em
Pues todo es absurdo si tú no estás

Riff y silbido (2 veces)

Em  Am  Bm  Am

---------------------------------------
------3--5-----------------------------
-3/4-------3~--2-------2~--0--4--2--0--
--------------------------------------2
---------------------------------------
---------------------------------------

Em          Am7
Llenabas mi alma de claridad
Bm7          Am7
Las luces se apagan cuando no estás.

================================
Transcripción de Pablo Hernández
 Para alguna duda o sugerencia:
       loop5563@
================================
Suggest correction
Give kudos to tab author, rate the tab!
1 2 3 4 5
comments
print report bad tab
guest
You may want to rate the tab now too:
select rating
Wanna post a correction for this tab? Suggest correction