Oops, an error
Loading. Please wait.

Hello Benjamin Tab

497 views 1 this week
no commentswrite comment
1 2 3 4 5
please rate
add to favorites
launch autoscroll
font size
0
reset
how to read this tab
guitar tuner
Tab Pro tools
  • play this tab
  • loop segment
  • change instrument
  • show fretboard
  • metronome
Autoscroll
slow
fast
+/-
esc
set tempo
stop
Contributor
Difficulty
-------------------------------------------------------------------------------
                             HELLO BENJAMIN - Melpo Mene
-------------------------------------------------------------------------------
Tabbed by: Coca30StmMCRFan
Email: Don't worry about it. Write a comment instead.

Tuning: Standard

Most of this song is on synthesizer, so I changed it to be on guitar.

This is the one definate guitar that I was able to hear through the whole song.
e|---------------------------------------------------|
B|---33---33---33---33---33---33---11---11---11---11-|
G|---33---33---33---33---33---33---22---22---22---22-|
D|-5-55-5-55-5-55-5-55-3-33-3-33-3-33-3---3----3----3|
A|---------------------------------------------------|
E|---------------------------------------------------|

This was the first synthesizer you hear
e|-------------------------|
B|-------11----------------|
G|-12-12------------10---12|
D|---------12-12-13----13--|
A|-------------------------|
E|-------------------------|

This was another guitar that came in shortly after the first synth left
e|---------------------------------------------------------------|
B|---------------------------------------------------------------|
G|---------------------------------------------------------------|
D|-5-5-8-8-5-5---5-5-8-8-5-5-------------------------------------|
A|-------------8-------------8-8-5-5-8-8-5-5---5-5-----5-5-------|
E|-------------------------------------------8-----5-5----8-8-5-5|

This sounds like the orginal guitar with a different toon that seems to restart this 
piece, so you play through it again.
e|-------------------------------|
B|-------------------------------|
G|--7--7--7--7-8-7--7------------|
D|-5--5--5--5------8--8-7-7-8p7p5|
A|-------------------------------|
E|-------------------------------|

e|---15--15--15--15--15--15--18--------------13--13--13--13|
B|-------------------------------15--15--15----------------|
G|-12--12--12--12--12--12--12--12--12--12--12--12--12--12--|
D|---------------------------------------------------------|
A|---------------------------------------------------------|
E|---------------------------------------------------------|

This is the synth at the end
e|-----------------------------|
B|-15-13--------------13-------|
G|------15-14-15-14-15----16-13|
D|----------------------15-----|
A|-----------------------------|
E|-----------------------------|

This is the other synth that kind of sounds like a ghost effect.
e|-----------|
B|---15-11-10|
G|-12--------|
D|-----------|
A|-----------|
E|-----------|

Rate and Comment Please! It's a good song and I tried my best to tab correctly because I 
didn't see anyone else doing so first!
comments
We did not receive enough feedback on this tab! Please rate:
print report bad tab
1 2 3 4 5
I want to post or [tab]
guest
You may want to rate the tab now too:
select rating
Please do not post tabs as comments. Select "correction" instead!