Oops, an error
Loading. Please wait.

Its In The Bag Tab

1,298 views 3 this week
no commentswrite comment
1 2 3 4 5
please rate
add to favorites
launch autoscroll
font size
0
reset
how to read this tab
guitar tuner
Autoscroll
slow
fast
+/-
esc
set tempo
stop
Help us to improve Ultimate-Guitar.com Take our survey!
×
Author
Tuning
muumi 216
D# G# C# F# A# D#
Melrose - It's In The Bag
http://www.myspace.com/melrosefinland

Tabbed by: Niklas Kumpulainen
Tuning: Eb


Intro:
|-----------------|
|-----------------|
|-----------------|
|---5-5-5-5-5-5-5-|
|---5-5-5-5-5-5-5-|
|---3-3-3-3-3-3-3-| + riff 1 x4


Riff 1:
|----------------------|
|----------------------|
|---5---5---7---7---77-|
|-7-5---5---7---7---77-|
|-7-3---3---5---5---55-|
|-5--------------------|


Riff 2:
|-------------------------------------------------|
|------------------------------------7b8-7b8-7b8--|
|------------------------------------7b8-7b8-7b8--|
|-7---------------7-------------------------------|
|-7---------------7-------------------------------|
|-5---------------5-------------------------------|
  gonna take your queen, your hollow gold and go


Riff 3:
|--------------------------------------------|
|-------------------------------7b8-7b8-7b8--|
|-7--------------7--------------7b8-7b8-7b8--|
|-7--------------7---------------------------|
|-5--------------5---------------------------|
|--------------------------------------------|
  thinking about all the poking gonna get


[Riff 1]
well my mind is in the gutter and my heart is in the man
feeling kinda crumpled, gonna sit then i'm had
some other kind of rocks
some other kind of rolls

[Riff 2]
gonna take your queen, your hollow gold and go

[Riff 1]
it's in the bag
your love is in the bag
it's in the bag (bag)
your love is in the bag

[Riff 1]
well the weeks are passing by
and you spend them on the road
your face is in the bag
and you'r smelling like a toad
some other kind of drugs
some other kind of hoes

[Riff 2]
gonna take your queen, your hollow gold and go

[Riff 1]
it's in the bag
your love is in the bag
it's in the bag
you'r nothing but a drag

[Solo 1]

[Riff 1]
another comin' home
you'll be on your own
wanna be alone
when the souveniers are gone
feel like all they look
guess i feel like getting down

[Riff 2]
people can't believe all the stone

[Riff 1]
my blow is in the bag
all the stone is in your bag
what's in the bag?
your life is in the bag

A5
the years are passing by
F5
you keep going on
D5
the bag has gotten empty now
A5
you don't feel so strong
A5
time is running out
F5
but i'm always looking back

[Riff 3]
thinking about all the poking gonna get

[Riff 1]
it's in the bag
all the blow is in the bag
it's in the bag
and the troubles i've had

[Solo 2]

it's in the bag


Solo rhythm:
|----------------------------------|
|----------------------------------|
|----------------------------------|
|-7-7-7-7-7-7-7-7-7-7-7-7-55555555-|
|-7-7-7-7-7-7-7-7-7-7-7-7-55555555-|
|-5-5-5-5-5-5-5-5-5-5-5-5-33333333-|


Solo 1:
|---------------------5---------------------------------10-10-10-10-10-10-|
|-7b8p5---------7b8p5-5-------7b8p5----7b8p5----7b8p5--8--------8---------|
|-7b8p5---------7b8p5---------7b8p5----7b8p5----7b8p5--7--------7---------|
|------7-7-7---------7-7-7---------77-------77-------7--------------------|
|-------------------------------------------------------------------------|
|-------------------------------------------------------------------------|

2x
|--------------------------------------------------------------|
|----------------5------------------------5--------------------|
|-7-5-7-5-7--7-5---7-5-----5---7--5-7-5-7---7--5---------------|
|----------------------7-5-----------------------5-5-5-5---5-5-|
|--------------------------------------------------------------|
|--------------------------------------------------------------|


Solo 2:
|--------------5--------------------------------------8--------|
|-------7b8p5--5---7b8p5------7b8p5------7b8p5-----8~---10~----|
|-------7b8p5--5---7b8p5------7b8p5------7b8p5-----------------|
|------------7----------7-7--------7-7--------7-7--------------|
|--------------------------------------------------------------|
|--------------------------------------------------------------|

2x
|--------------------------------------------------------------|
|----------------5------------------------5--------------------|
|-7-5-7-5-7--7-5---7-5-----5---7--5-7-5-7---7--5---------------|
|----------------------7-5-----------------------5-5-5-5---5-5-|
|--------------------------------------------------------------|
|--------------------------------------------------------------|

|-----------------------5-------7b8-7-5------------------------|
|---------------------5---8p5-----------8b10-8-5-8p5-----------|
|-7-5-7-5-7-5-7-5-7-5--------7----------------------7-7p5------|
|--------------------------------------------------------7-----|
|--------------------------------------------------------------|
|--------------------------------------------------------------|

|--------------------------------------------------------------|
|----------------5------------------------5--------------------|
|-7-5-7-5-7--7-5---7-5-----5---7--5-7-5-7---7--5---------------|
|----------------------7-5-----------------------5-5-5-5---5-5-|
|--------------------------------------------------------------|
|--------------------------------------------------------------|

|--------------------------------------------------------------|
|-------7b8p5---------7b8p5---------7b8p5----7b8p5----7b8p5----|
|-------7b8p5---------7b8p5---------7b8p5----7b8p5----7b8p5----|
|------------7-7-----------7-7-----------77-------77-------77--|
|--------------------------------------------------------------|
|--------------------------------------------------------------|
Suggest correction new What's this?
You can suggest a correction to this tab. Community and Mods will review your correction and vote to approve or reject it.
comments
We did not receive enough feedback on this tab! Please rate:
print report bad tab
1 2 3 4 5
guest
You may want to rate the tab now too:
select rating
Please do not post tabs as comments. Select "correction" instead!