Oops, an error
Loading. Please wait.

Cuando Todo Sale Mal Bass

6 views 1 this week
no commentswrite comment
1 2 3 4 5
3 more votes to show rating
add to favorites
launch autoscroll
font size
0
reset
guitar tuner
×
Best way to learn
"Cuando Todo Sale Mal"
Autoscroll
slow
fast
+/-
esc
set tempo
stop
VERSO

|--------------------------|-------------------------|
|--------------------------|-------------------------|
|--2---2-2--2-2---2-2-2--2-|-------------------------|
|--------------------------|-4---4-4--4-4---4-4-4--4-|

|--------------------------|-------------------------|
|--------------------------|-------------------------|
|-/4---4-4--4-4---4-4-4--4-|-------------------------|
|--------------------------|-2---2-2--2-2---2-2-2--2-|

|--------------------------|-------------------------|
|--------------------------|-------------------------|
|--2---2-2--2-2---2-2-2--2-|-------------------------|
|--------------------------|-4---4-4--4-4---4-4-4--4-|

|--------------------------|-------------------------|
|--------------------------|-------------------------|
|-/4---4-4--4-4---4-4-4--4-|-------------------------|
|--------------------------|-2---2-2--2-2---2-2-2--2-|

INTER

|-------------------|-----------------|
|-------------------|-----------------|
|---4-4-4-4-4-4-4-4-|-----------------|
|-------------------|-2-2-2-2-2-2-2-2-|

|-------------------|------------------|
|-------------------|------------------|
|---4-4-4-4-4-4-4-4-|------------------|
|-------------------|--2-2-2-2-2-2-2-2-|


CORO
|-------------------|-----------------|
|-------------------|-----------------|
|---4-4-4-4-4-4-4-4-|-----------------|
|-------------------|-2-2-2-2-2-2-2-2-|

|-------------------|------------------|
|-------------------|------------------|
|---4-4-4-4-4-4-4-4-|------------------|
|-------------------|--2-2-2-2-2-2-2-2-|

VERSO

|--------------------------|-------------------------|
|--------------------------|-------------------------|
|--2---2-2--2-2---2-2-2--2-|-------------------------|
|--------------------------|-4---4-4--4-4---4-4-4--4-|

|--------------------------|-------------------------|
|--------------------------|-------------------------|
|-/4---4-4--4-4---4-4-4--4-|-------------------------|
|--------------------------|-2---2-2--2-2---2-2-2--2-|

|--------------------------|-------------------------|
|--------------------------|-------------------------|
|--2---2-2--2-2---2-2-2--2-|-------------------------|
|--------------------------|-4---4-4--4-4---4-4-4--4-|

|--------------------------|-------------------------|
|--------------------------|-------------------------|
|-/4---4-4--4-4---4-4-4--4-|-------------------------|
|--------------------------|-2---2-2--2-2---2-2-2--2-|


CORO
|-------------------|-----------------|
|-------------------|-----------------|
|---4-4-4-4-4-4-4-4-|-----------------|
|-------------------|-2-2-2-2-2-2-2-2-|

|-------------------|------------------|
|-------------------|------------------|
|---4-4-4-4-4-4-4-4-|------------------|
|-------------------|--2-2-2-2-2-2-2-2-|


SE REPITE HASTA EL FINAL..............

ya gente esta si esta bueno  (creo)
chauuuuu
Suggest correction
Give kudos to tab author, rate the tab!
1 2 3 4 5
comments
print report bad tab
guest
You may want to rate the tab now too:
select rating
Wanna post a correction for this tab? Suggest correction