Oops, an error
Loading. Please wait.

Everyday Bass

19 views 1 this week
no commentswrite comment
1 2 3 4 5
3 more votes to show rating
add to favorites
launch autoscroll
font size
0
reset
guitar tuner
×
Best way to learn
"Everyday"
Autoscroll
slow
fast
+/-
esc
set tempo
stop
Intro (2 veces)
Everyday.................
|-------------------------|-------------------------------|
|-------------------------|-------------------------------|
|----5--5-5--5-5--5-5-5-5-|-------------------------------|
|-------------------------|--3--3-3--3-3--3-3-3-3---------|


verso
a mi me cuesta.........
|-------------------------|-------------------------------|
|-------------------------|-------------------------------|
|----5--5-5--5-5--5-5-5-5-|--2--2-2--2-2--2-2-2-2---------|
|-------------------------|-------------------------------|

|-------------------------|-------------------------------|
|-------------------------|-------------------------------|
|----5--5-5--5-5--5-5-5-5-|-------------------------------|
|-------------------------|-3--3-3--3/5--5-5-5------------|
y a veces.............
|-------------------------|-------------------------------|
|-------------------------|-------------------------------|
|----5--5-5--5-5--5-5-5-5-|--2--2-2--2-2--2-2-2-2---------|
|-------------------------|-------------------------------|

|-------------------------|-------------------------------|
|-------------------------|-------------------------------|
|----5--5-5--5-5--5-5-5-5-|--------------------5----------|
|-------------------------|-3--3-3--3/5--5-7-8------------|

pre-coro
cuando me dijiste.........
|-------------------------|-------------------------------|
|-------------------------|-------------------------------|
|---2--2-2--2--2-2--2-----|-------------------------------|
|-------------------------|-3--3-3--3/5--5-5-5------------|

|-------------------------|-------------------------------|
|-------------------------|-------------------------------|
|---2--2-2--2--2-2--2-----|-------------------------------|
|-------------------------|-3--3-3--3/5--5-5-5------------|


coro (2 veces)
everyday...........
|-------------------------|-------------------------------|
|-------------------------|-------------------------------|
|----5--5-5--5-5--5-5-5-5-|-------------------------------|
|-------------------------|--3--3-3--3-3--3-3-3-3---------|
verso
lo q es de.......
|-------------------------|-------------------------------|
|-------------------------|-------------------------------|
|----5--5-5--5-5--5-5-5-5-|--2--2-2--2-2--2-2-2-2---------|
|-------------------------|-------------------------------|

|-------------------------|-------------------------------|
|-------------------------|-------------------------------|
|----5--5-5--5-5--5-5-5-5-|-------------------------------|
|-------------------------|-3--3-3--3/5--5-5-5------------|
me llama mucho la.............
|-------------------------|-------------------------------|
|-------------------------|-------------------------------|
|----5--5-5--5-5--5-5-5-5-|--2--2-2--2-2--2-2-2-2---------|
|-------------------------|-------------------------------|

|-------------------------|-------------------------------|
|-------------------------|-------------------------------|
|----5--5-5--5-5--5-5-5-5-|--------------------5----------|
|-------------------------|-3--3-3--3/5--5-7-8------------|


pre-coro
cuando me dijiste.........
|-------------------------|-------------------------------|
|-------------------------|-------------------------------|
|---2--2-2--2--2-2--2-----|-------------------------------|
|-------------------------|-3--3-3--3/5--5-5-5------------|

|-------------------------|-------------------------------|
|-------------------------|-------------------------------|
|---2--2-2--2--2-2--2-----|-------------------------------|
|-------------------------|-3--3-3--3/5--5-5-5------------|


coro (4 veces)
everyday...........
|-------------------------|-------------------------------|
|-------------------------|-------------------------------|
|----5--5-5--5-5--5-5-5-5-|-------------------------------|
|-------------------------|--3--3-3--3-3--3-3-3-3---------|


|-------------------------|-------------------------------|
|-------------------------|-------------------------------|
|--5--5-5--5-5---5-5-5-5--|---------------------------5---|
|-------------------------|--3--3-3-3/5--5-5--5-5-5-5-----|

espero q este bien, si no me avisan y yo la arreglo
vale
ya gente saludos pa los q vean mi transcripcion
y obviamente para la mujer que inspira mi trabajo musical
carito te quiero muxo
Suggest correction
Give kudos to tab author, rate the tab!
1 2 3 4 5
comments
print report bad tab
guest
You may want to rate the tab now too:
select rating
Wanna post a correction for this tab? Suggest correction