Oops, an error
Loading. Please wait.

Juego Cruel Chords

58 views 1 this week
no commentswrite comment
1 2 3 4 5
3 more votes to show rating
add to favorites
launch autoscroll
font size
0
reset
transpose
0
reset
display chords
guitar tuner
×
Best way to learn
"Juego Cruel"
Autoscroll
slow
fast
+/-
esc
set tempo
stop
Punteo Inicial
E---------6-8-10----6-8--5-6--3-5--1-1---5-5--1--5----5-5--1-5----------------------
B---8-8------------------------------------------------------------------3-3--1-3---
G----------------------------------------------------
D----------------------------------------------------
A----------------------------------------------------
E----------------------------------------------------
(Se repite)

Cm                                      F
Oh nena sabes cuanto te quiero,
A#                                                         G
pero hay ciertas cosas que un hombre no puede soportar.
Cm                   F
No, no trates de impedirlo
A#                              G
no malgastes tu tiempo que esto ya esta decidido.
Cm     F      A#            G
No volvere a caer en tu juego cruel.
Cm     D#m      A#                   G
No intentes nada que nada volvera a ser lo que fue.

E---------6-8-10----6-8--5-6--3-5--1-1---5-5--1--5----5-5--1-5-----------------------
B---8-8------------------------------------------------------------------3-3--1-3----
G----------------------------------------------------
D----------------------------------------------------
A----------------------------------------------------
E----------------------------------------------------
Cm                          F
Oh nena tienes que entenderlo
A#                           G
y hacerlo deprisa yo no te quiero hacer daño.
Cm                          F
No, no trates de impedirlo
A#                                                         G
no malgastes tu tiempo que esto ya esta decidido.
Cm      F           A#              G
No volvere a caer en tu juego cruel
Cm       D#m          A#                         G
No intentes nada, que nada volvera a ser lo que fue.
Cm      F           A#              G
No volvere a caer en tu juego cruel
Cm      F           A#              G
No volvere a caer en tu juego cruel
Cm      F           A#              G
No volvere a caer en tu juego cruel
Cm      F           A#              G
No volvere a caer en tu juego cruel

E---------6-8-10----6-8--5-6--3-5--1-1---5-5--1--5----5-5--1-5-----------------------
B---8-8------------------------------------------------------------------3-3--1-3----
G----------------------------------------------------
D----------------------------------------------------
A----------------------------------------------------
E----------------------------------------------------
 te amo mi amor!!!^^
Suggest correction
Give kudos to tab author, rate the tab!
1 2 3 4 5
comments
print report bad tab
guest
You may want to rate the tab now too:
select rating
Wanna post a correction for this tab? Suggest correction