Oops, an error
Loading. Please wait.

Juego Cruel Tab

version 2
version 2

Whole song

38 views 1 this week
no commentswrite comment
1 2 3 4 5
3 more votes to show rating
add to favorites
launch autoscroll
font size
0
reset
how to read this tab
guitar tuner
Autoscroll
slow
fast
+/-
esc
set tempo
stop
Help us to improve Ultimate-Guitar.com Take our survey!
×
Bueno, aca les dejo la mejor parte de esta cancion,
el punteo... espero que les guste
---------------------------------------------------

/  : SLIDE
~  : DEJAR SONAR

  x2
E|--------6-8-10--6-8---------------------------------------------------------------------|
B|--6/8-8-------------10-11--8-11--10~-----------10-10-----10~--10~------10---------------|
G|-------------------------------------10-10~----------10-----------10~-------------------|
D|---------------------------------------------------------------------------12-12-10-12~-|
A|----------------------------------------------------------------------------------------|
E|----------------------------------------------------------------------------------------|


 Solo :

E|--13-13-13-11-11-11-10-10-10-8--13-13-13-11-11-11-10-10-10-8--|
B|--------------------------------------------------------------|
G|--------------------------------------------------------------|
D|--------------------------------------------------------------|
A|--------------------------------------------------------------|
E|--------------------------------------------------------------|

E|--------------8-10-11-13-11-8-11-13-13/15-13-11-10--8--6------|
B|--------10-11-------------------------------------------------|
G|--10-12-------------------------------------------------------|
D|--------------------------------------------------------------|
A|--------------------------------------------------------------|
E|--------------------------------------------------------------|

E|--13-13-13-11-11-11-10-10--8--|
B|--15-15-15-13-13-13-11-11-10--|
G|------------------------------|   X2
D|------------------------------|
A|------------------------------|
E|------------------------------|


E|--------------8-10-11-13-11-8-11-13-13/15-13-11-10--8--6------|
B|--------10-11-------------------------------------------------|
G|--10-12-------------------------------------------------------|
D|--------------------------------------------------------------|
A|--------------------------------------------------------------|
E|--------------------------------------------------------------|

Oh nena sabes cuanto te quiero,
Pero hay ciertas cosas que un hombre no puede soportar.
No, no trates de impedirlo
No malgastes tu tiempo que esto ya esta decidido.
No volvere a caer en tu juego cruel.
No intentes nada que nada volvera a ser lo que fue.
Oh nena tienes que entenderlo
Y hacerlo deprisa yo no te quiero hacer daño.
No, no trates de impedirlo
No malgastes tu tiempo que esto ya esta decidido.
No volvere a caer en tu juego cruel
No intentes nada, que nada volvera a ser lo que fue.
No volvere a caer en tu juego cruel[x4]


___________________________________
CUALQUIER COMENTARIO ESCRIBIR A :  |
luxocore_nj@            |
Suggest correction
Give kudos to tab author, rate the tab!
1 2 3 4 5
comments
print report bad tab
guest
You may want to rate the tab now too:
select rating
Wanna post a correction for this tab? Suggest correction