Oops, an error
Loading. Please wait.

Amazon tab

version 2
version 2

Whole song

Interactive

by Melvins
493 views 1 this week
2 commentsread comments
1 2 3 4 5
3 more votes to show rating
add to favorites
×
Save as Personal and add changes to this tab that will be seen only by you. Learn more ›
×
You can save this tab as Personal to edit and correct it or add notes. All changes will be seen only by you. Learn more »
launch autoscroll
font size
0
reset
how to read this tab
guitar tuner
edit
Autoscroll
slow
fast
+/-
esc
set tempo
stop
The Melvins
amazon

Tuning: I play it in Droped Db, but thats just me. You can play it in Dropped D if you want.


Verse:
|-------------------------------------|
|-------------------------------------|
|-------------------------------------|
|-------------------------------------|
|---0000000--3-4-3-0--00000-6-66-66---|
|---0000000--3-4-3-0--00000-6-66-66---|
   [..p.m..]         [.p.m.]


Chorus:
|-----------------------------------------------------------|
|-----------------------------------------------------------|
|--555-55-555-777-77-777-888-88-888-333/1010-101010---------|
|--555-55-555-777-77-777-888-88-888-333/1010-101010---------|
|--333-33-333-555-55-555-666-66-666-111/8-8--8-8-8----------|
|-----------------------------------------------------------|


Post-Chorus:
|---------------------|
|---------------------|
|---------------------|
|---------------------|
|---0000000--6-5-3-0--|
|---0000000--6-5-3-0--|
   [..p.m..]

play that a few times then, Then finish it with this.
|-------|
|-------|
|--5----|
|--5----|
|--3----|
|-------|

Play the whole thing over again, and then go read my other AMAZON tab to link em together.    :D
Ziggyandgiggy@yahoo.com

            
            
Suggest correction
Creating personal tab
Creating personal tab
You can edit any tab online and save it as your Personal.

You can edit, replace or remove any tab part or add personal notes – all changes will be seen only by you.

Personal tabs can be accessed anytime from any device, even offline.
Learn more »
Give kudos to tab author, rate the tab!
1 2 3 4 5
comments
print report bad tab
2 comments total.
0 reply
Green_Honey 1,652 Nov 22, 2005 01:57 AM

The Melvins
"amazon" and "AMAZON"
from The Maggot LP

ben.nield@gmail.com

Drop-D Tuning

"amazon"

Verse:
|--------------------------------------------------------------|
|--------------------------------------------------------------|
|--------------------------------------------------------------|
|--------------------------------------------------------------|
|-0-0-0-0-0-0-0-0-0-0-0-3--4--3--0-0-0-0-0-0-6--6--x--6--6-3-0-|
|-0-0-0-0-0-0-0-0-0-0-0-3--4--3--0-0-0-0-0-0-6--6--x--6--6-3-0-|
. . . . . . . . . . . . . . . . .

Chorus:
|--------------------------------------------------------------------------|
|--------------------------------------------------------------------------|
|-5--5-5-5-5-5-5-5-7--7-7-7-7-7-7-7-8--8-8-8-8-8-8-8-3--3-3-3/10--10-10-10-|
|-5--5-5-5-5-5-5-5-7--7-7-7-7-7-7-7-8--8-8-8-8-8-8-8-3--3-3-3/10--10-10-10-|
|-3--3-3-3-3-3-3-3-5--5-5-5-5-5-5-5-6--6-6-6-6-6-6-6-1--1-1-1/8---8--8--8--|
|--------------------------------------------------------------------------|

Post-Chorus:
|----------------------------------|
|----------------------------------|
|----------------------------------|
|----------------------------------|
|-0-0-0-0-4-0-0-0-4-0-0-6--5--3--0-|
|-0-0-0-0-4-0-0-0-4-0-0-6--5--3--0-|
. . . . . . . . .

Play that a few times, then let this ring:
|----------------------------
|----------------------------
|-5--------------------------
|-5--------------------------
|-3--------------------------
|----------------------------


"AMAZON"

Intro/Verse:
|---------------------------------|
|---------------------------------|
|---------------------------------|
|---------------------------------|
|-0---0---0-0-0-0-0---0---0-0-0-0-|
|-0---0---0-0-0-0-0---0---0-0-0-0-|
. . . . . . . . . . . .

Main Riff:
|-----------------------------------------------------------------|
|-----------------------------------------------------------------|
|-----------------------------------------------------------------|
|-------------------------------------------------2---1-----------|
|---------0-0-0-0-6---5---0-0-0-0---------0-0-0-0---------0-0-0-0-|
|-2---1---0-0-0-0---------0-0-0-0-4---3---0-0-0-0---------0-0-0-0-|
. . . . . . . . . . . . . . . .

|-----------------------------------------------------------------|
|-----------------------------------------------------------------|
|-----------------------------------------------------------------|
|-5---4-----------------------------------------------------------|
|---------0-0-0-0---------0-0-0-0-6---5---0-0-0-0-6---5---0-0-0-0-|
|---------0-0-0-0-2---1---0-0-0-0---------0-0-0-0---------0-0-0-0-|
. . . . . . . . . . . . . . . .

Post-Main Riff/Outro:
|-----------------------------------------------------------------|
|-----------------------------------------------------------------|
|-----------------------------------------------------------------|
|-----------------------------------------------------------------|
|-6---5---0-0-0-0-6---5---0-0-0-0-6---5---0-0-0-0-6---5---0-0-0-0-|
|---------0-0-0-0---------0-0-0-0---------0-0-0-0---------0-0-0-0-|
. . . . . . . . . . . . . . . .

0 reply
Green_Honey 1,652 Nov 22, 2005 01:57 AM

non accurate

guest
Wanna post a correction for this tab? Suggest correction