Oops, an error
Loading. Please wait.

Black Bock Tab

3,404 views 3 this week
no commentswrite comment
1 2 3 4 5
x 5
add to favorites
launch autoscroll
font size
0
reset
how to read this tab
guitar tuner
×
Best way to learn
"Black Bock"
Autoscroll
slow
fast
+/-
esc
set tempo
stop
Author
Difficulty
  follow
intermediate
  Black Bock
by The MELVINS

/ slide up

\ slide down

^ bend


Intro - play 2x:

E|---------------------------------|---------------------------------|
B|---------------------------------|---------------------------------|
G|---------------------------------|---------------------------------|
D|---------------------------------|---------5---0-------------------|
A|-----0---2-0---3---3-2-0---0-2-0-|---------------------------------|
E|-3-----------3-----------3-------|-3-------------------------------|
..mute all


Verse is alternate G and C power chords (repeat 4x) and then D


Then play this 2x:

E|---------------------------------|---------------------------------|
B|---------------------------------|---------------------------------|
G|---------------------------------|---------------------------------|
D|---------------------------------|---------------------------------|
A|-------------2h3-3-3-3-3-----2-0-|-------------3-------------------|
E|-3-3-3-3-------------------------|-3-3-3-3-------------------------|
..mute all


Solo:

  1   2   3   4   1   2   3   4     1   2   3   4   1   2   3   4
E|---------------------------------|----------------\12-10------------|
B|---------------------------------|-7/9-7----/8-10-------------------|
G|---------------------------------|----------------------------------|
D|\7---5---------5---5-4-----5-7-9-|----------------------------------|
A|---------7-6-5---------5-7-------|----------------------------------|
E|---------------------------------|----------------------------------|

E|---------------------------------|---------------------------------|
B|---------------------------------|---------------------------------|
G|---------------------------------|---------------------------------|
D|\9---7---5---0-5---5---0-5---0-5^|---------------------------------|
A|-----------7---------7-----7-----|---------------------------------|
E|---------------------------------|---------------------------------|

E|---------------------------------|---------------------------------|
B|---------------------------------|---------------------------------|
G|---------------------------------|---------------------------------|
D|-------------5-----5-----5--5-7^-|---------------------------------|
A|---5-----5-7-----7-----7--7------|-5-------------------------------|
E|/7-----7-------------------------|---------------------------------|

E|---------------------------------|---------------------------------|
B|---------------------------------|---------------------------------|
G|---------------------------------|---------------------------------|
D|---------------------------------|---------------------------------|
A|-5-------------------------------|---------------------------------|
E|---7-5-3-5-3-0-3---3-0-3-5-3-0-3^|---------------------------------|

Outro - strum this chord sequence 4 times:

E|---------------------------------|---------------------------------|
B|---------------------------------|---------------------------------|
G|-7-------------------------------|-10------------------------------|
D|-7-------------------------------|-10------------------------------|
A|-5-------------------------------|-8-------------------------------|
E|---------------------------------|---------------------------------|

E|---------------------------------|---------------------------------|
B|---------------------------------|---------------------------------|
G|-9-------------------------------|-8-------------------------------|
D|-9-------------------------------|-8-------------------------------|
A|-7-------------------------------|-6-------------------------------|
E|---------------------------------|---------------------------------|
Suggest correction
comments
print report bad tab
guest
You may want to rate the tab now too:
select rating
Wanna post a correction for this tab? Suggest correction