Oops, an error
Loading. Please wait.

Its Shoved Bass Tab

3,379 views 1 this week
1 commentread comment
1 2 3 4 5
1 last vote to show rating
add to favorites
launch autoscroll
font size
0
reset
guitar tuner
×
Best way to learn
"Its Shoved"
Autoscroll
slow
fast
+/-
esc
set tempo
stop
Artist: Melvins
Album: Bullhead
Song: It's Shoved

Bass ta by johnny z


(0:00 - 1:45)
Keep repeating
g-----------------------------------------------------|
d-----------------------------------------------------|
a-------2--4-4-----------------0-0--------------------|
e--0-0----------3-3--0--3-3-3-------0-0-1-------------|

(1:45 - 2:00) This is a slight variation of the first part
Keep repeating
g-----------------------------------------------------|
d-----------------------------------------------------|
a-------2--4-4----------0-0----0----------------------|
e--0-0----------3-3--0-------3---3--0--3--0-----------|

(2:00 - 2:05)
Play this once
g-----------------------------------------------------|
d-----------------------------------------------------|
a--------------------------0-0------------------------|
e--0--0---0-0-3-3-3-3-3-3-----------------------------|

(2:05 - 2:15)
Keep repeating
g-----------------------------------------------------|
d-----------------------------------------------------|
a-----------------------------------------------------|
e-0-0-0-0-0-0-0-0-0-0-0-0-0-0-0-0-0-0-0-0-0-0-0-0-----|

(2:15 - 2:25)
Keep repeating
g-----------------------------------------------------|
d------2-------2--0---0---0---0---0---0---------------|
a-------------------2---4---4---4---4---4-------------|
e--0-0----0-0-----------------------------------------|

(2:25 - 2:35)
Play this once
g-----------------------------------------------------|
d-----------------------------------------------------|
a-1-0-1-0-----2-3-------------------------------------|
e----------2-3-----2-3-0------------------------------|
Suggest correction
Give kudos to tab author, rate the tab!
1 2 3 4 5
comments
print report bad tab
1 comment total.
0 reply
markus.gansi 10 Oct 27, 2013 12:58 PM

I think the end is:

g-----------------------------------------------------|
d-----------------------------------------------------|
a-1-0-1-0-----2-3-1-0----2-3--------------------------|
e----------2-3--------2-3---0--------------------------|

guest
You may want to rate the tab now too:
select rating
Wanna post a correction for this tab? Suggest correction