Oops, an error
Loading. Please wait.

Revolve Tab

version 1
version 1

Whole song

Interactive

by Melvins
13,251 views 42 this week
3 commentsread comments
1 2 3 4 5
x 6
add to favorites
launch autoscroll
font size
0
reset
how to read this tab
guitar tuner
×
Best way to learn
"Revolve"
Autoscroll
slow
fast
+/-
esc
set tempo
stop
#----------------------------------PLEASE NOTE---------------------------------#
#This file is the author's own work and represents their interpretation of the #
#song. You may only use this file for private study, scholarship, or research. #
#------------------------------------------------------------------------------##


From: Burning.Inside@f929.n273.z1.fidonet.org (Burning Inside)
Date: 06 Dec 95 17:21:01 -0500
Subject: TAB: Corrected "Revolve" by the Melvins


From: burning.inside@f929.n273.z1.fidonet.org

Revolve         by the Melvins
                from the album "Stoner Witch"
                music by Buzz Osbourne and Mark Deutrom
                tabbed by Tom Mallon

Tuning DADGBE

INTRO
E -----------------------------------------------------------|
B -----------------------------------------------------------|
G --5h7-xx-7-7-7-5h7-xx-5h7-xx-5h7-xx-5h7--------------------|
D --5h7-xx-7-7-7-5h7-xx-5h7-xx-5h7-xx-5h7--------------------|
A --5---xx-5-5-5-5---xx-5---xx-5---xx-5----------------------|
D -----------------------------------------------------------|

VERSE
E ------------------------------------------------------------|
B ------------------------------------------------------------|
G ------------------------------------------------------------|
D ------------------------------------------------------------|
A -0--0-0--0--0-0---0-0--2-3--3-3-3--3-3-3p0-0-3h5-5-5-555555-|
D -0--0-0--0--0-0---0-0--2-3--3-3-3--3-3-3p0-0-3h5-5-5-555555-|

E ------------------------|
B ------------------------|
G ------------------------|
D ------------------------|
A -5-5---66666666-5-3-0---|
D -5-5---66666666-5-3-0---|

CHORUS
E ----------------------------------------------|
B --5--5-5-5------------------------------------|
G --5-x5-5-5------------------8\7--8\7----------|
D --5-x5-5-5---3-3-3-3-3-3----8\7--8\7--xx------|
A --3-x3-3-3---3-3-3-3-3-3----6\5--6\5--xx------|
D -------------3-3-3-3-3-3-----------------3p0--|

E ------------------------------------------------|
B -------------------------5--5-5-5---------------|
G ----8\7--8\7-------------5-x5-5-5---------------|
D -xx-8\7--8\7-------------5-x5-5-5--3-3-3-3-3-3--|
A -xx-6\5--6\5-------------3-x3-3-3--3-3-3-3-3-3--|
D --------------3p0-3p0--------------3-3-3-3-3-3--|

E -----------------------------------------------------------|
B -----------------------------------------------------------| this part
G -----------------------------------------------------------| is END OF
D -----------------------------------------------------------| CHORUS
A --------6-6-5-5------3-------------------------------------|
D -1-0-0----------6-6-----6-5-5-4-4-3-3-2-2-3p2-0------------|


RIFF 1
E -----------------------------|
B -----------------------------|
G -----------------------------|
D -----------------------------|
A -2-2-2-2---2-2-2-2-----------|
D -0-0-0-0---0-0-0-0--3^r-3^r--|

RIFF 2
E ---------------------------|
B ---------------------------|
G --7-7-7-7-7--7-7-7-7/8\7---|
D --7-7-7-7-7--7-7-7-7/8\7---|
A --5-5-5-5-5--5-5-5-5/6\5---|
D ---------------------------|

RIFF 3
E -------------------------------|
B -------------------------------|
G --7--7--7-7-7-7--7-7-7---4-5---|
D --7--7--7-7-7-7--7-7-7---4-5---|
A --5--5--5-5-5-5--5-5-5---2-3---|
D -------------------------------|

BRIDGE
E ---------------------------|
B ---------------------------|
G -7--7----------------------|
D -7--7-------0h3p0----------|
A -5--5---2h3-------3--2-3---|
D ---------------------------|

Songflow
INTRO 5x
VERSE 2x
VERSE 4x w/heavy PM
CHORUS
VERSE 4x w/heavy PM
CHORUS
RIFF 1 3x
RIFF 2 2x
RIFF 1 4x
RIFF 1 6x w/heavy PM
RIFF 3 3x
BRIDGE 20x
C G
END OF CHORUS 2x
Suggest correction
comments
print report bad tab
3 comments total.
-1 reply
Mega Therion 75 Dec 08, 2005 12:51 PM

intro is wrong its more like:

e|---------------------------------
b|---------------------------------
g|-0h2-2-2-0h1-0h1-----------------
d|-0---0-0-0---0-------------------
a|---------------------------------
e|---------------------------------

that's not the right amount of anything but blah play around with that and you have the intro... or you can do it down by the d chord.

-2 reply
Green_Honey 1,652 Mar 27, 2006 12:20 PM

Melvins - Revolve

Tuning DADGBE

INTRO
1 2 3 4 1 2
E -------------------------------------------------
B -------------------------------------------------
G -5/7-x-x-7---7\5-5/6-x-x-7/8-x-x-7/8-x-x-7/8-x-x-
D -5/7-x-x-7---7\5-5/6-x-x-7/8-x-x-7/8-x-x-7/8-x-x-
A -3/5-----5---5\3-3/4-----5/6-----5/6-----5/6-----
D -------------------------------------------------

VERSE
1 2 3 4 1 2 3 4
E ----------------------------------------------------------
B ----------------------------------------------------------
G ----------------------------------------------------------
D ----------------------------------------------------------
A -0--0-0--0-0--0-0-0-0-0-2--3--3-3--3-3--3-3-3-3-3p0-0-3h5-
D -0--0-0--0-0--0-0-0-0-0-2--3--3-3--3-3--3-3-3-3-3p0-0-3h5-
Palm-Mute all

E ----------------------------------------------------------
B ----------------------------------------------------------
G ----------------------------------------------------------
D ----------------------------------------------------------
A -5--5-5--5-5--5-5-5-5-5-5-5-5-5-5-5-5-5-5-5-5-5-3---0-----
D -5--5-5--5-5--5-5-5-5-5-5-5-5-5-5-5-5-5-5-5-5-5-3---0-----
Palm-Mute all

CHORUS
E ----------------------------------------------
B ----------------------------------------------
G --5-x5-5-5------------------8\7--8\7----------
D --5-x5-5-5---3-3-3-3-3-3----8\7--8\7--xx------
A --3-x3-3-3---3-3-3-3-3-3----6\5--6\5--xx------
D -------------3-3-3-3-3-3-----------------3p0--

E ------------------------------------------------
B -------------------------5--5-5-5---------------
G ----8\7--8\7-------------5-x5-5-5---------------
D -xx-8\7--8\7-------------5-x5-5-5--3-3-3-3-3-3--
A -xx-6\5--6\5-------------3-x3-3-3--3-3-3-3-3-3--
D --------------3p0-3p0--------------3-3-3-3-3-3--

E -----------------------------------------
B -----------------------------------------
G -----------------------------------------
D -----------------------------------------
A ---------------6--6--5--5--------3-------
D -0---1---0--0--------------6--6------6---

E ---------------------------------
B --------------------------------- this part
G --------------------------------- is CHORUS
D --------------------------------- Outro
A ---------------------------------
D -5--5--4--4--3--3--2--2--3-2-1---

RIFF 1
E -------------------------
B -------------------------
G -------------------------
D -------------------------
A -0-0-0-0---0-0-0-0-------
D -0-0-0-0---0-0-0-0---3^r-

Hold this note:
E --------------------------------------------------
B --------------------------------------------------
G --------------------------------------------------
D -0------------------------------------------------
A --------------------------------------------------
D --------------------------------------------------

RIFF 2
E ---------------------------------------
B ---------------------------------------
G ---------------------------------------
D -12--12-12-12\11/12--12--12-12-12/13---
A -12--12-12-12\11/12--12--12-12-12/13---
D -12--12-12-12\11/12--12--12-12-12/13---

RIFF 3
E ---------------------------------------
B ---------------------------------------
G ---------------------------------------
D -12--12--12-12-12-12--12-12-12-10--11--
A -12--12--12-12-12-12--12-12-12-10--11--
D -12--12--12-12-12-12--12-12-12-10--11--

BRIDGE
e|--------------------------------|
B|--------------------------------|
G|--------------------------------|
D|--------------------------------|
A|-12--12----------8--------------|
D|-12--12--9-10-12---12-10-9--10--|

thingie before solo actually starts
(you can get the sound of the solo by
removing the tone out of your guitar):

e|--------------------------------
B|--------------------------------
G|-10h7~~-------------------------
A|--------------------------------
D|--------------------------------
E|--------------------------------

this is what the solo is based on
work your own way around it
e|-------------------------------|
B|-14^-14^--14-12----------------|
G|----------------14-12-14-12----|
D|----------------------------14-|
A|-------------------------------|
D|-------------------------------|

then you get this:
e|-------------------------------|
B|-------------------------------|
G|-12^~~~~~12^~~~~~12^~~~~~12^~~~|
D|----------------------------14-|
A|-------------------------------|
D|-------------------------------|

then then you get something that goes like this:
e|-------------------------------|
B|-------------------------------|
G|-14h17-14h17-14h17-14h17-12h13-|
D|----------------------------14-|
A|-------------------------------|
D|-------------------------------|

and then you kinda work your way back to what got the solo started.

after the solo play this:
E -------------------------------------------------
B -------------------------------------------------
G -------------------------------------------------
D -10------

0 reply
mcvmccarty 10 Aug 08, 2010 11:20 AM

nobody's quite got it exactly right. just speaking of the intro, here's more like how it goes:

E --------------------------------------------------------|
B --------------------------------------------------------|
G --5h7-7-7-7-x-5-5-5h6-xx-5---xx-5---xx-5----------------|
D --5h7-7-7-7-x-5-5-5h6-xx-5---xx-5---xx-5----------------|
A --5---5-5-5-x-5-5-5h6-xx-5h6-xx-5h6-xx-5h6--------------|
D --------------------------------------------------------|


also, the verse never goes up to the 6th fret, but stops at the 5th, as Green_Honey has it.

guest
You may want to rate the tab now too:
select rating
Wanna post a correction for this tab? Suggest correction