Oops, an error
Loading. Please wait.

Blues En Fa Tab

96 views 1 this week
no commentswrite comment
1 2 3 4 5
3 more votes to show rating
add to favorites
launch autoscroll
font size
0
reset
how to read this tab
guitar tuner
×
Best way to learn
"Blues En Fa"
Autoscroll
slow
fast
+/-
esc
set tempo
stop
intro 
  | Fm  Ab7 | G7  Gb7| x2

(melodia acompañando con esta bace: )

//
||---------------------------|------------------|
||---------------------------|------------------|
||-----1--3^5-4-3-1-3-1------|----3---1-3-------|
||---3------------------3----|--3---3------3--3-|
||-3-------------------------|------------------|  x2
\\---------------------------|------------------|


//
||---------------------------|-----------------6-|
||---------------------------|-----------------6-|
||-----6--8^10-9-8-6-8-6-----|----8---6-8--------|
||---8-------------------8---|--8---8------6^8---|
||-8-------------------------|-------------------|
\\---------------------------|-------------------|


//
||---------------------------|------------------1-|
||---------------------------|------------------1-|
||-----1--3^5-4-3-1-3-1------|----3---1-3---------|
||---3------------------3----|--3---3------3--3---|
||-3-------------------------|--------------------|
\\---------------------------|--------------------|


//
||-------------------|----------4--0-3--|
||-----------4--2----|------------------|
||-----1--3----------|----1--3----------|
||---3---------------|--3---------------|
||-------------------|------------------| 
\\-------------------|------------------|


             Fm      Ab         Cb     C7
             Toda la noche viajando
             Fm      Ab          Cb     C7
             para volverte a encontrar
             Fm      Ab          Cb     C7
             y cuando llego a tu casa
             Fm      Ab         Cb     C7
             me dicen que ya no estás

             Bbm       C#    F#     F                         
             el cielo se puso negro
             Bbm       C#    F#     F
             y se empezó a derrumbar
             Fm      Ab         Cb     C7
             mis manos quedaron frías
             Fm      Ab      Cb     C7    Fm    Ab Cb C7
             no te pudieron               tocar


             en este desierto
             no crece ni una flor
             te extraño tanto
             extraño tanto tu amor

             mis labios palidecen
             si no te pueden besar
             que pasa con el fuego
             que ya no puede       quemar

(inter: acordes de estrofas)

             que pasa con el viento
             que ya no puede soplar
             ni barrer la tristeza
             que tu ausencia me trae

             quisiera abrir mi alma
             el dolor dejar salir
             que sucediera un milagro
              y estuvieras       aqui
                           aquí, junto a mí, aquí


//
||-------------------||
||-----------4--3----||
||-----1--3----------||
||---3---------------||
||-------------------|| 
\\-------------------||


quino : quinox@
EL OJO PURPURA
Suggest correction
Give kudos to tab author, rate the tab!
1 2 3 4 5
comments
print report bad tab
guest
You may want to rate the tab now too:
select rating
Wanna post a correction for this tab? Suggest correction