Oops, an error
Loading. Please wait.

La Bifurcada Bass

545 views 12 this week
no commentswrite comment
1 2 3 4 5
3 more votes to show rating
add to favorites
launch autoscroll
font size
0
reset
guitar tuner
×
Best way to learn
"La Bifurcada"
Autoscroll
slow
fast
+/-
esc
set tempo
stop
INTRO Y MAYOR PARTE DEL TEMA IMPROVISA
UNA BANDA EL PIBE EN LA VERSION EN VIVO

INTRO

e/-5----5--8-------8-7---/
a/-----------8-7-7-------/
d/-----------------------/
g/-----------------------/

esa es la subida que hace el bajo

e/-55-33-22-11-3-5-/
a/-----------------/
d/-----------------/
g/-----------------/

hay una parte que queda el bajo con la bata tocando b

e/-----------/
a/-2-2-2-2-2-/
d/-----------/
g/-----------/


puente

e/--------------------/
a/--5--7--dejar sonar-/
d/--------------------/
g/--------------------/

en otra parte del tema toca lo mismo nomas que lo repite

e---------------------/
a-5--5--5---7---7---7-/
d---------------------/
g---------------------/

estrbillo

e-------------/
a----------5--/
d-------7-----/
g-7-7-5-------/


e-----------/     e-----------/
a---------7-/  o  a-------9-7-/
d-------9---/     d-9-9-7-----/
g-9-9-7-----/     g-----------/

es asi no se cual suena mejor

despues va la subida

e--------------------------/
a--------------------------/
d-7-7-5-5-4-4-3-3-2--5-6-7-/
g--------------------------/


el final cuando dice bya

e-------------8--5-/
a-8---8-7---9------/
d---7-----9-------/
g-----------------/
Suggest correction
Give kudos to tab author, rate the tab!
1 2 3 4 5
comments
print report bad tab
guest
You may want to rate the tab now too:
select rating
Wanna post a correction for this tab? Suggest correction